• Song:

    Bloody Luxury

  • Artist:

    Whitesnake

  • Album:

    Saints And Sinners

Tuning:standard
Tabbed by:a crazy teenage rock and roll fan


intro.
E|-------------------------------------------------------------|
B|-------------------------------------------------------------|
G|-------------------------------------------------------------|
D|-------------------------------------------------------------|
A|-0---2---0---2---0-3-2-0-2-0---0---2---0---2---0-3-2-0-2-0---|
E|-----------------------------3-----------------------------3-|

E|------------------------------------------|
B|------------------------------------------|
G|------------------------------------------|
D|-------------------------------7-----5--4-|
A|-0---2---0---2---0-3-2-0-2-0---5-----3--2-|
E|-----------------------------3------------|

verse 
E|-----------------------------------------------------------------|
B|-----------------------------------------------------------------|
G|---------------------------------2-2-4-4-2-2-4-4-2-2-4-4-2-2-4-4-|
D|-2-2-4-4-2-2-4-4-2-2-4-4-2-2-4-4-0-0-0-0-0-0-0-0-0-0-0-0-0-0-0-0-|
A|-0-0-0-0-0-0-0-0-0-0-0-0-0-0-0-0---------------------------------|
E|-----------------------------------------------------------------|

E|-----------------------------------------------------------------|
B|-----------------------------------------------------------------|
G|-----------------------------------------------------------------|
D|-2-2-4-4-2-2-4-4-2-2-4-4-2-2-4-4---------------------------------|
A|-0-0-0-0-0-0-0-0-0-0-0-0-0-0-0-0-2-2-4-4-2-2-4-4-2-2-4-4-2-2-4-4-|
E|---------------------------------0-0-0-0-0-0-0-0-0-0-0-0-0-0-0-0-|

E|-----------------------------------------------------------------|
B|-----------------------------------------------------------------|
G|---------------------------------2-2-4-4-2-2-4-4-2-2-4-4-2-2-4-4-|
D|-2-2-4-4-2-2-4-4-2-2-4-4-2-2-4-4-0-0-0-0-0-0-0-0-0-0-0-0-0-0-0-0-|
A|-0-0-0-0-0-0-0-0-0-0-0-0-0-0-0-0---------------------------------|
E|-----------------------------------------------------------------|

E|-------------------------------------------------|
B|-------------------------------------------------|
G|-------------------------------------------------|
D|-2-2-4-4-2-2-4-4---------------------------------|
A|-0-0-0-0-0-0-0-0-2-2-4-1-2-2-4-4-2-2-4-1-2-2-4-4-|
E|-----------------0-0-0-0-0-0-0-0-0-0-0-0-0-0-0-0-|
play this entire thing twice 

chorus
E|-----------------------------------------------------------------|
B|-----------------------------------------------------------------|
G|---------------------------------2-2-4-4-2-2-4-4-2-2-4-4-2-2-4-4-|
D|-2-2-4-4-2-2-4-4-2-2-4-4-2-2-4-4-0-0-0-0-0-0-0-0-0-0-0-0-0-0-0-0-|
A|-0-0-0-0-0-0-0-0-0-0-0-0-0-0-0-0---------------------------------|
E|-----------------------------------------------------------------|

E|---------------------------------------------------|
B|---------------------------------------------------|
G|---------------------------------------------------|
D|-2-2-4-4-2-2-4-4-2-2-4-4-2-2-4-4-0-----------------|
A|-0-0-0-0-0-0-0-0-0-0-0-0-0-0-0-0-2---4---5---4---2-|
E|---------------------------------0---0---0---0---0-|

E|-----------------------------------------------------------------|
B|-----------------------------------------------------------------|
G|---------------------------------2-2-4-4-2-2-4-4-2-2-4-4-2-2-4-4-|
D|-2-2-4-4-2-2-4-4-2-2-4-4-2-2-4-4-0-0-0-0-0-0-0-0-0-0-0-0-0-0-0-0-|
A|-0-0-0-0-0-0-0-0-0-0-0-0-0-0-0-0---------------------------------|
E|-----------------------------------------------------------------|

E|---------------------------------------------|
B|---------------------------------------------|
G|-2---7---6---2---7---5-----------------------|
D|-0---5---4---0---5---4---0-----------0-------|
A|-----------------------0---3-2-0---0---3-2-0-|
E|---------------------------------------------|

E|---------------------|
B|---------------------|
G|---------------------|
D|---------------------|
A|-3-2-0---2-0---5-3-2-|
E|-------------3-------|

this song is standard so just repeat the verse and chorus three times.

ROCK AND ROLL!!!!!!!!!!!!!!!!!!!!!!!!!!!!!!!!!!!!!!
Show more