• Song:

    Call On Me

  • Artist:

    Whitesnake

  • Album:

    Good to Be Bad

I know this tab has been requested all over youtube and on other sites.

Guitars are tuned Drop D half step down (Db Ab Db Gb Bb Eb)

Intro

|------------------------------------------|
|------3--------3-------------3--------3---|
|------2--------2-------------2--------2---|
|-3p0--0---3p0--0--------3p0--0---3p0--0---|
|----3--------3-------------3--------3-----|
|------------------------------------------|

Main Riff

|------------------------------------------------|
|-3-------------------------------------------5--|
|-2-------------------------------------------5--|
|-0-0--0-----------------------------------3--5--|
|---0--0---------------------3h5~~---------3--3--|
|---0--0---7p5-5p3p0---5h7------0-7p5p0--3-----|

|-----------------------------------------------|
|-3------------------------------------------5--|
|-2------------------------------------------5--|
|-0-0--0-------------------------3--------3--5--|
|---0--0---------------------3h5--5--3----3--3--|
|---0--0---7p5-5p3p0---5h7----------7p5-----|

Chorus

|---------------------------------|
|-3-3-3-3---------------------5-5-|
|-2-2-2-2-----------------3-3-5-5-|
|-0-0-0-0-3-3-3-3-5-5-5-5-3-3-5-5-|
|-0-0-0-0-3-3-3-3-5-5-5-5-1-1-3-3-|
|-0-0-0-0-3-3-3-3-5-5-5-5---------|


Thats all you really need, I cant work out solos that fast without slowing the song down.

Keep Rockin'!

Gez
Show more