• Song:

    Children Of The Night

  • Artist:

    Whitesnake

  • Album:

    Here I Go Again: The Wh...

Tabbed by: ooblah

Tuning: (E A D G B e)

Intro/Verse/Chorus Riff
e|--------|----------------------------------|
B|--------|----------------------------------|
G|--------|------3-----3/5~-----2-----2-3~-0-|
D|--------|------3-----3/5~-----3-----3-3~-0-|
A|---10\--|--0-0---0-0------0-0---0-0--------|
E|---10\--|----------------------------------|
          P.M...   ...      ...   ... 

Pre-solo Riff
e|------------------------------------------------|
B|------------------------------------------------|
G|---------3---------3---------3---------3-----5~-|
D|---------3---------3---------3---------3-----5~-|
A|-0-0-0-0---0-0-0-0---0-0-0-0---0-0-0-0---0-0----|
E|------------------------------------------------|
P.M.......   .......   .......   .......   ... 

| /  slide up
| \  slide down
| ~  vibrate
|..  Palm mute note
Show more