• Song:

    Come And Get It

  • Artist:

    Whitesnake

Main Riff Part A                  x3
E||------------------------------------|
B||*-----sl-------------sl------------*|
G||---7-7--3-----5-7-7-7--3------5-5---|
D||---7-7--3---5-5-7-7-7--3--5-5-5-5---|
A||*--5-5--1---5-3-5-5-5--1--5-5-3-3--*|
E||------------3-------------3-3-------|

   Main Riff Part B
E||--------------------------------|
B||-----sl-------------sl----------|
G||--7-7--3-----5-7-7-7--3--7-5----|
D||--7-7--3---5-5-7-7-7--3--7-5-5--|
A||--5-5--1---5-3-5-5-5--1--5-3-5--|
E||-----------3-----------------3--|

Main Riff Part A x1

   Bridge
E||---------------------------------------|
B||-----sl-------------sl-----------------|
G||--7-7--3-----5-7-7-7--3--7-5----7-7-7--|
D||--7-7--3---5-5-7-7-7--3--7-5-5--7-7-7--|
A||--5-5--1---5-3-5-5-5--1--5-3-5--5-5-5--|
E||-----------3-----------------3---------|

  Chorus
  (Struggled with this but here's a rough guess of the bass line)
E||--------------------|
B||--------------------|
G||--------------------|
D||--------3-----------|
A||--3--5-----5--3-----|
E||-----------------5--|

Repeat All
Main Riff Part A x1
Bridge
Chorus to Fade
Show more