• Song:

    Dancing Girls

  • Artist:

    Whitesnake

  • Album:

    Saints And Sinners

* * Repeat Once Unless Stated 
 
 
   Main Riff          x13 
E||----------------------| 
B||*--------------------*| 
G||---2--4--2------------| 
D||---2--4--2--4444444---| 
A||*--0--2--0--4444444--*| 
E||------------2222222---| 
 
   Bridge 
E||-----------| 
B||-----------| 
G||-----2--4--| 
D||--4--2--4--| 
A||--4--0--2--| 
E||--2--------| 
 
   Chorus                 x3 
E||-------------------------| 
B||*--6--4-----------------*| 
G||---6--4---4-4-2-4--2-----| 
D||---6--4---4-4-2-4--2-2---| 
A||*--4--2---2-2-0-2--0-2--*| 
E||---------------------0---| 
 
 
E||------------------------| 
B||------------------------| 
G||--2----------2----------| 
D||--2-2-4---4--2-2-4---4--| 
A||--0-2-4---4--0-2-4---4--| 
E||----0-2---2----0-2---2--| 
 
Then Repeat All
Show more