• Song:

    Dont Break My Heart Again

  • Artist:

    Whitesnake

INTRO: Organ (transcribed for guitar)
e|------------------------------------------------------|
B|------------------------------------------------------|
G|------5-----7---5---5---------------------------------|
D|--7---3-5---5---3-5-3-5---5-7-------------------------|
A|--5-----3---------3---3---3-5-------------------------|
E|------------------------------------------------------|
 
During intro do guitar power chord (~ means slide)
e|------------------------------------------------------|
B|------------------------------------------------------|
G|--5-7--7----------------------------------------------|
D|--5~7--7----------------------------------------------|
A|--3~5--5----------------------------------------------|
E|------------------------------------------------------|
 
CHORUS
    Time and  again I sing your   song
e|----------|-------------------|---------|
B|--3-------|-------------------|---------|
G|--0-------|---5---------------|-7-------|
D|--0-------|---5---------------|-7-------|
A|----------|---3---------------|-5-------|
E|--3-------|-------------------|---------|
 
BRIDGE
e|------------------------------------------------------|
B|-6--5-6--8--6-5---------------------------------------|
G|---------------5-7------------------------------------|
D|------------------------------------------------------|
A|------------------------------------------------------|
E|------------------------------------------------------|
 
   But, i've been runnin' on  empty far too  long
e|--------------------------|--------------|------------|
B|--------------------------|--------------|------------|
G|-7------------------------|-5------------|-7----------|
D|-7------------------------|-5------------|-7----------|
A|-5------------------------|-3------------|-5----------|
E|--------------------------|--------------|------------|
 
BRIDGE
e|------------------------------------------------------|
B|-6--5-6--8--6-5---------------------------------------|
G|---------------5-7------------------------------------|
D|------------------------------------------------------|
A|------------------------------------------------------|
E|------------------------------------------------------|
 

   I've had enough holdin  on to the past
e|------------------------|-----------------------------|
B|------------------------|-----------------------------|
G|-7----------------------|--5--------------------------|
D|-7----------------------|--5--------------------------|
A|-5----------------------|--3--------------------------|
E|-5----------------------|--3--------------------------|
 
   Make no mistake, it could be your last
e|-4-----------------------|--6-------------------------|
B|-6-----------------------|--8-------------------------|
G|-5-----------------------|--7-------------------------|
D|-3-----------------------|--5-------------------------|
A|-3-----------------------|--5-------------------------|
E|-------------------------|----------------------------|
 

   Don't break my heart again,    like you did before
   Don't break my heart again,    i couldn't take anymore
e|---------------|-----|-----------|---------------------|
B|---------------|-6---|-----------|---------------------|
G|---------------|-5---|-5---------|-5--3----3-5---------|
D|--5~7--7-------|-3---|-5-5~7--7--|--5--3-5----5-5~7--7-|
A|--3~5--5-------|-----|-3-3~5--5--|--------------3~5--5-|
E|---------------|-----|-----------|---------------------|
another guitar
e|---------------------------------|---------------------|
B|---------------------------------|---------------------|
G|---------------------------------|---------------------|
D|---------------------------------|--------------5-5~7--|
A|---------------------------------|-3--1----1-3--3-3~5--|
E|---------------------------------|--3--1-3-------------|
 

SOLO: use echo
e|--------------------------5-6~8--10~12--13~14--17-----17`-17`--|
B|--------5-6-8--------5-6-8------------------------15-----------|
G|-7--5-7-------7--5-7-------------------------------------------|
D|---------------------------------------------------------------|
A|---------------------------------------------------------------|
E|---------------------------------------------------------------|
 

e|-15-13---10-------------------------------------------|
B|-------13---13----13~10-----13`10-----13`10-----------|
G|------------------------12--------12--------12-10`----|
D|------------------------------------------------------|
A|------------------------------------------------------|
E|------------------------------------------------------|
 

e|------------------------------------------------------|
B|------------------------------------------------------|
G|-----------------------------------------------10`----|
D|-------10----10---12-13-10----10-12-13-10---10--------|
A|-10~12---12----------------12-----------12------------|
E|------------------------------------------------------|
 

e|---13----17-15---17-15----17-15-----------------------|
B|-15--15-------15------15-------15---------------------|
G|----------------------------------14------------------|
D|------------------------------------------------------|
A|------------------------------------------------------|
E|------------------------------------------------------|
 

e|-15~17-15----13---------------------------------------|
B|----------15----15--15~12------15~12------------------|
G|-------------------------14~12------14~12-------------|
D|------------------------------------------12----------|
A|------------------------------------------------------|
E|------------------------------------------------------|
 
End song with CHORUS
 
   Don't break my heart again,    like you did before
   Don't break my heart again,    i couldn't take anymore
e|---------------|-----|-----------|---------------------|
B|---------------|-6---|-----------|---------------------|
G|---------------|-5---|-5---------|-5--3----3-5---------|
D|--5~7--7-------|-3---|-5-5~7--7--|--5--3-5----5-5~7--7-|
A|--3~5--5-------|-----|-3-3~5--5--|--------------3~5--5-|
E|---------------|-----|-----------|---------------------|
Show more