• Song:

    Fool For Your Loving

  • Artist:

    Whitesnake

  • Album:

    The Best

Symbols used:                                           T
 p  - pull off          A.H. - Artificial harmonic     (12 ...) - tapped note
 b  - half bend         B    - full bend
 /  - slide upward      \    - slide downward
 PM - palm mute         h    - hammer on
 
  MAIN PART                                           A.H.
 |--------------------------------------------------|------------------------|
 |--------------------------------------------------|------------------------|
 |--------5--7p5-----5--5--7---------5--7p5--5-5----|------7B (w/ whammy bar)|
 |--------5--7p5-----5--5--7---------5--7p5--5-5--5-|------------------------|
 |----------------0-------------------------------5-|------------------------|
 |-3-5-5----------------------3-5-5-----------------|------------------------|
 
  This is played four times (except for the whammy thing which is played only
  once). By the third time it is changed slightly, like below.
 
 |---------------------------------------------------------------------------|
 |---------------------------------------------------------------------------|
 |--------5--7p5-----5--5--7---------5--7p5----------------------------------|
 |--------5--7p5-----5--5--7---------5--7p5--7h10p7--------------------------|
 |----------------0---------------------------------10p7---------------------|
 |-3-5-5----------------------3-5-5----------------------10p8h10-------------|
 
 PART 2 (2x) [don't know how to call this]
 |---------------------------------------------------------------------------|
 |--6-6-6-6---8-8-8-8--------------------------------------------------------|
 |--7-7-7-7---9-9-9-9-----------------------------5~~~~~---------------------|
 |--7-7-7-7---9-9-9-9-------------------------5------------------------------|
 |--5-5-5-5---7-7-7-7-----3----------3----5/7---7----------------------------|
 |----------------------5---5~~~~--5---5-------------------------------------|
 
 CHORUS
 |---------5\----------5\----------------------------------------------------|
 |---------5\----------5\----------------------------------------------------|
 |---------5\----------5\---------2--7-7-7-7--9-9-9-9-9-9-9-9----------------|
 |--3-5-7-------3-5-7-------3-5-2-2--7-7-7-7--9-9-9-9-9-9-9-9----------------|
 |--3-5-7-------3-5-7-------3-5-2-0--5-5-5-5--7-7-7-7-7-7-7-7----------------|
 |--1-3-5-------1-3-5-------1-3-0--------------------------------------------|
                                  P.M.(......................)
 
  BRIDGE                 SOLO
 |---------------------|--17\--------------------/17-------------------------|
 |---------------------|--17\--------------------/17--8B----8---8 p 5--7-----|
 |------9--5-------|--17\--5------9/12/14--/17----hold bend--------7---|
 |-2--------------5/7--|---------7p5-----------------------------------------|
 |-0----7--3-------|--------------7/10/12------------------------------|
 |----------------3/5--|-----------------------------------------------------|
 
 
 |---------------------------------------------------------------------------|
 |------------12b-12p10h12---15B 15p13----15-----------------------~~~-------|
 |-7B-7p5--7-|play 3 times|------------14------/17p16p14--/16p12--0-------0--|
 |-----------------------------------------------------------------w/bar-----|
 |---------------------------------------------------------------------------|
 |---------------------------------------------------------------------------|
 
                                                   T
 |-----------12-10\8--8--5--7--5------------(12-10p8p7h8h10)--
 |---------------------------------------8/10--------------------
 |------------9\-7--7--5--2--4--2----5/7---------------------
 |----2------------------------------------------------------------
 |-5-----3/5-------------------------------------------------------
 |-----------------------------------------------------------------
 
 
 |---T-----------------------------------------------------------------------|
 |-(12-10p8p6h8h10)-----T----------------------------------------------------|
 |-[play it twice]---(12-9p7p5h7h9)-----T------------------------------------|
 |-------------------[play it twice]---(12-9p7p5h7h9)------------------------|
 |-------------------------------------[play it twice]---12-8-7-5-7-8--------|
 |---------------------------------------------------------------------------|
 
 
 |-19--15/17--17
--12/15--15
--12-----------------
 |-----------------------------------------13
---------
 |-16--12/14--14
---9/12--12\-9---9-----------12/14-
 |-----------------------------------------10\-9---10/12-
 |-------------------------------------------------------
 |-------------------------------------------------------
 
 
 |--13p12p10h12h15p12p10----------15B~~~---| 
 |-------------------------13p10-----------|
 |-----------------------------------------|
 |-----------------------------------------|
 |-----------------------------------------|
 |-----------------------------------------|
 
Lyrics and Chords
 
(With the main part)                     
 
I was born under a bad sign            | I always end up crying
Let out in the cold                    | A fool for your loving no more
I'm a lonely man who knows             | I'll be a fool for your loving no more
Just it means                          |              (BRIDGE)
to lose control                        | 
                                         (With the main part)
but I took all the heartache           | I'm tired of hiding my feelings
and turned into the shame              | You left me lonely for too long
Now I'm movin' movin' on               | I gave my heart and you tore it apart
and I can't take the blame             | Oh baby you done me wrong

(With part 2)                            (With part 2)

don't come runnin' to me               | Don't come running to me
I know I've done all I can             | I know I've done all I can
A hard loving woman like you           | A hard loving woman like you
just makes a hard loving man           | Just makes a hard loving man
                                       |
so I can say it to you babe            | So I can say it to you baby
           
(With Chorus)                            (With chorus)
 
I'll be a fool for your loving no more | I'll be a fool for your loving no more
a fool for your loving no more         | A fool for your loving no more                       
I'm so tired of trying                 | I'm so tired of trying
                                       | I always end up crying
                                       | a fool for your ...(etc.)
Show more