• Song:

    Guilty Of Love

  • Artist:

    Whitesnake

  • Album:

    Here I Go Again: The Wh...

Intro: A5 F#5 D5 E5 (2x)

A5                  F#5
I believe my love for you 
        D5                     E5
Is a love that will last forever, 
A5              F#5
An' I'm here to testify 
      D5             E5
I'm a prisoner of your heart 
A5                 F#5
Baby don't you believe 
                D5
When I tell you I love you 
            E5
That I really mean it, 
A5            F#5
Don't you walk away, 
           D5                  E5
Don't you turn your back on me 

(Refr?o)
                  F#5 E5 F#5 (2x)
I'm guilty of love, 
D5            E5
It's a crime of passion 
            F#5 E5 F#5 (2x)
Guilty of love, 
               D5                   
An' there's no doubt about it, 
E5
No doubt about it 


        A5
I'm guilty of love, 
       F#5
I'm guilty of love, 
        E5
I'm guilty, 

In the first degree 
  A5
Guilty of love, 
      F#5
I'm guilty of love, 
       E5
I'm guilty, 

In the first degree 


A5 F#5 D5 E5 (2x)

A5            F#5
I can never forget the times 
        D5                       E5
When I took what you gave me for granted 
A5            F#5
So I stand accused 
              D5                 E5
An' I plead guilty to the crime 
A5                F#5
You can lock me away if you want 
        D5                     E5
Just as long as your arms are around me, 
A5             F#5
An' I won't mind 
             D5                     E5
If you just throw away the key 

(Refr?o)


F#5 E5 F#m(2x)               F#5 E5 F#5 (2x)
                     Guilty of love... 

(Solo) 

(Refr?o 2x)


 A5
Guilty of love, 
       F#5
I'm guilty of love, 
      E5
I'm guilty, 

In the first degree... (4x)


_______________________________________________________
Contribui??o: Eduardo Soares Warth(tutiwarth@hotmail.com )



Ae galera, essa ? uma segunda vers?o com riff e talz, naum tem segredo, ? s? entra no
ritmo msm! :)

E | ---------------------- | -------5-------------- | 
B | --2-2-3-5-2-2-3-5-2--- | -2-3-5---7-5-7-5-3---- | 
G | ---------------------- | ---------------------- |  --> INTRO
D | ---------------------- | ---------------------- | 
A | ---------------------- | ---------------------- | 
E | ---------------------- | ---------------------- | 

E | ---------------------- | -------5-------------- | 
B | --2-2-3-5-2-2-3-5-2--- | -2-3-5---7-5-7/2------ | 
G | ---------------------- | ---------------------- | 
D | ---------------------- | ---------------------- | 
A | ---------------------- | ---------------------- | 
E | ---------------------- | ---------------------- | 

Base e Refr?o: A5 F#5  D5 E5  ..I'm guilty of love.. F# E# F# .. D5 E5 --> 2X


solinho
E | ---------------------- | -------5-------------- | 
B | --2-2-3-5-2-2-3-5-2--- | -2-3-5---7-5-7-5-3---- | 
G | ---------------------- | ---------------------- |  --> 2x
D | ---------------------- | ---------------------- | 
A | ---------------------- | ---------------------- | 
E | ---------------------- | ---------------------- | 

E | -9-9-9-9-9-9-9-10-10-10-10-10-10-10-12-12-12-12-12-12-12-14-12-14-12-14-12
B | ---------------------- | ---------------------------------------------------
G | ---------------------- | ---------------------------------------------------
D | ---------------------- | ---------------------------------------------------
A | ---------------------- | ---------------------------------------------------
E | ---------------------- | ---------------------------------------------------

E | --9/12-7/10-5-5/12/10- | ---------------------- |    
B | ---------------------- | ---------------------- | 
G | ---------------------- | ---------------------- |  
D | ---------------------- | ---------------------- | 
A | ---------------------- | ---------------------- | 
E | ---------------------- | ---------------------- | 

..I'm guilty of love.. F# E# F# .. D5 E5 --> 2X
Show more