• Song:

    Lay Down Your Love

  • Artist:

    Whitesnake

  • Album:

    Good to Be Bad

Transcribed by Axeman72

Gtr I (D A D G B E) - 'Guitar 1'
Gtr II (D A D G B E) - 'Guitar 2'
Gtr III (D A D G B E) - 'Slide Guitar'
Gtr IV (D A D G B E) - 'Clean'

  Q=100
 4/4
  Gtrs I, II, III
  Wx8
|--------|
|--------|
|--------|
|--------|
|--------|
|--------|


 4/4
  Gtr I
  S S S S S   S S S  E   S  S   +S  S E   +W
|---------------------------------------|--------|
|---------------------------------------|--------|
|---------1b2---------------------------|--------|
|---1-3-------3-1-3------3----------3---|--------|
|-3-----3-------------------------------|--------|
|--------------------7b8----5b6-(5)---3-|-(3)----|
|
| Gtr II
| S S S S S   S S S  E   S  S   +S  S E   +W
|---------------------------------------|--------|
|---------------------------------------|--------|
|---------1b2---------------------------|--------|
|---1-3-------3-1-3------3----------3---|--------|
|-3-----3-------------------------------|--------|
|--------------------7b8----5b6-(5)---3-|-(3)----|
|
| Gtr III
| H                  E.     S   +E    E   +W
|---------------------------------------|--------|
|---------------------------------------|--------|
|---------------------------------------|--------|
|---------------------------------------|--------|
|---------------------------------------|--------|
|-------------------/8-----/6---(6)---3-|-(3)----|


            |---3---|
   S  S S S S   +S  S S S  E   S  S   +S  S E   +W
|---------------------------------------------|--------|
|---------------------------------------------|--------|
|-----------1b2r(1)---------------------------|--------|
|-----1-3-----------3-1-3------3----------3---|--------|
|--3------3-----------------------------------|--------|
|--------------------------7b8----5b6-(5)---3-|-(3)----|
|
|           |---3---|
|  S  S S S S   +S  S S S  E   S  S   +S  S E   +W
|---------------------------------------------|--------|
|---------------------------------------------|--------|
|-----------1b2r(1)---------------------------|--------|
|-----1-3-----------3-1-3------3----------3---|--------|
|--3------3-----------------------------------|--------|
|--------------------------7b8----5b6-(5)---3-|-(3)----|
|
| +H                       E.     S   +E    E   +W
|---------------------------------------------|--------|
|---------------------------------------------|--------|
|---------------------------------------------|--------|
|---------------------------------------------|--------|
|---------------------------------------------|--------|
|-(3)---------------------/8-----/6---(6)---3-|-(3)----|


   S  S S S S   S S S  E   S  S   +S  S E
|-----------------------------------------|
|-----------------------------------------|
|-----------1b2---------------------------|
|-----1-3-------3-1-3------3----------3---|
|--3------3-------------------------------|
|----------------------7b8----5b6-(5)---3-|
|
|  S  S S S S   S S S  E   S  S   +S  S E
|-----------------------------------------|
|-----------------------------------------|
|-----------1b2---------------------------|
|-----1-3-------3-1-3------3----------3---|
|--3------3-------------------------------|
|----------------------7b8----5b6-(5)---3-|
|
| +H                   E.     S   +E    E
|-----------------------------------------|
|-----------------------------------------|
|-----------------------------------------|
|-----------------------------------------|
|---------------------/8-----/6---(6)---3-|
|-(3)-----------------/8-----/6---(6)---3-|


            |---3---|
   S  S S S S   +S  S S S  E   S  S   +S  S E
|----------------------------------------------|
|----------------------------------------------|
|-----------1b2r(1)----------------------------|
|-----1-3-----------3-1-3------3----------3----|
|--3------3------------------------------------|
|--------------------------7b8----5b6-(5)---3--|
|
|           |---3---|
|  S  S S S S   +S  S S S  E   S  S   +S  S E
|----------------------------------------------|
|----------------------------------------------|
|-----------1b2r(1)----------------------------|
|-----1-3-----------3-1-3------3----------3----|
|--3------3------------------------------------|
|--------------------------7b8----5b6-(5)---3--|
|
| +H                       E.     S   +E    E
|----------------------------------------------|
|----------------------------------------------|
|----------------------------------------------|
|----------------------------------------------|
|-(3)---------------------/8-----/6---(6)---3--|
|-(3)---------------------/8-----/6---(6)---3--|


  Gtrs I, II
       PM  PM  PM|        PM    PM         PM  PM  PM|        PM    PM
  +S   S S S S E S S  +S  S S S S E   +S   S S S S E S S  +S  S S S S E
|-----------------------------------|-----------------------------------|
|-----------------------------------|-----------------------------------|
|-----------------------------------|-----------------------------------|
|--------3---3-----6--(6)---6-8---6-|-(6)----3---3-----6--(6)---6-8---6-|
|------------------6--(6)---6-8---6-|-(6)--------------6--(6)---6-8---6-|
|-(3)--3---3---3-3-6--(6)-3-6-8-3-6-|-(6)--3---3---3-3-6--(6)-3-6-8-3-6-|
|
| Gtr III
|  H               Q.             E   +H               Q.             E
|-----------------------------------|-----------------------------------|
|-----------------------------------|-----------------------------------|
|-----------------------------------|-----------------------------------|
|---------------------------------6-|-(6)\----------------------------6-|
|--3\-----------------------------6-|-(6)\----------------------------6-|
|-(3)\------------------------------|-----------------------------------|


       PM  PM  PM|        PM    PM
  +S   S S S S E S S  +S  S S S S E
|-------------------------------------|
|-------------------------------------|
|-------------------------------------|
|-(6)----3---3-----6--(6)---6-8---6---|
|-(6)--------------6--(6)---6-8---6---|
|-(6)--3---3---3-3-6--(6)-3-6-8-3-6---|
|
| +H               Q.             E
|-------------------------------------|
|-------------------------------------|
|-------------------------------------|
|-(6)\----------------------------6---|
|-(6)\----------------------------6---|
|-------------------------------------|


                                      Verse
       PM  PM  PM
  +S   S S S S S E  E +S   S +E  E     +W           +H     +E  Q.
|----------------------------------||-------------|------------------|
|----------------------------------||o------------|------------------|
|----------------------------------||-------------|------------------|
|-(6)----3---3---------------------||-------------|------------------|
|-(6)---------------8-(8)--6-(6)-3-||o-(3)--------|-(3)----(3)-------|
|-(6)--3---3---3----8-(8)--6-(6)-3-||--(3)--------|-(3)----(3)-x\----|
|
| +H                E +S   S +E  E     +W           +W
|----------------------------------||-------------|------------------|
|----------------------------------||o------------|------------------|
|----------------------------------||-------------|------------------|
|-(6)\-----------------------------||-------------|------------------|
|-(6)\-------------/8-(8)-/6-(6)-3-||o-(3)--------|-(3)--------------|
|------------------/8-(8)-/6-(6)-3-||--(3)--------|-(3)--------------|


  S S S S S   S S S  E   S  S   +S  S E
|---------------------------------------|
|---------------------------------------|
|---------1b2---------------------------|
|---1-3-------3-1-3------3----------3---|
|-3-----3-------------------------------|
|--------------------7b8----5b6-(5)---3-|
|
| H                  E.     S   +E    E
|---------------------------------------|
|---------------------------------------|
|---------------------------------------|
|---------------------------------------|
|-------------------/8-----/6---(6)---3-|
|-------------------/8-----/6---(6)---3-|


            |---3---|
   S  S S S S   +S  S S S  E   S  S   +S  S E
|----------------------------------------------|
|----------------------------------------------|
|-----------1b2r(1)----------------------------|
|-----1-3-----------3-1-3------3----------3----|
|--3------3------------------------------------|
|--------------------------7b8----5b6-(5)---3--|
|
| +H                       E.     S   +E    E
|----------------------------------------------|
|----------------------------------------------|
|----------------------------------------------|
|----------------------------------------------|
|-(3)---------------------/8-----/6---(6)---3--|
|-(3)---------------------/8-----/6---(6)---3--|


                     ~
  +W           E E E E +E  Q.
|------------|------------------|
|------------|------------------|
|------------|------------------|
|------------|------------------|
|------------|-3-----6-(6)------|
|-(3)--------|-3-----6-(6)-x\---|
|
|                    ~
| +W           E E E E +H
|------------|------------------|
|------------|------------------|
|------------|------------------|
|------------|------------------|
|-(3)--------|-3-----6-(6)------|
|-(3)--------|-3-----6-(6)------|


  S S S S S   S S S  E   S  S   +S  S E
|---------------------------------------|
|---------------------------------------|
|---------1b2---------------------------|
|---1-3-------3-1-3------3----------3---|
|-3-----3-------------------------------|
|--------------------7b8----5b6-(5)---3-|
|
| H                  E.     S   +E    E
|---------------------------------------|
|---------------------------------------|
|---------------------------------------|
|---------------------------------------|
|-------------------/8-----/6---(6)---3-|
|-------------------/8-----/6---(6)---3-|


            |---3---|
   S  S S S S   +S  S S S  E   S  S   +S  S  E
|-----------------------------------------------|
|-----------------------------------------------|
|-----------1b2r(1)-----------------------------|
|-----1-3-----------3-1-3------3----------3-----|
|--3------3-------------------------------------|
|--------------------------7b8----5b6-(5)----8--|
|
| +H                       E.     S   +E     E
|-----------------------------------------------|
|-----------------------------------------------|
|-----------------------------------------------|
|-----------------------------------------------|
|-(3)---------------------/8-----/6---(6)---/8--|
|-(3)---------------------/8-----/6---(6)---/8--|


                             PM    PM   PM
  +H.      +E  E   +Q    E S S S E S S  S S S
|----------------|----------------------------|
|----------------|----------------------------|
|----------------|----------------------------|
|----------------|-------------6-6---6----6-8-|
|----------------|-------------6-6---6----6-8-|
|-(8)------(8)-6-|-(6)\------3-6-6-3-6--3-8-8-|
|
| +H.      +E  E   +Q    H           E.     S
|----------------|----------------------------|
|----------------|----------------------------|
|----------------|----------------------------|
|----------------|--------------------------8-|
|-(8)------(8)-6-|-(6)\---------------------8-|
|-(8)------(8)-6-|-(6)\-----------------------|


       PM   PM  PM|       PM    PM
  +S   S  S S S E S S +S  S S S S E
|-----------------------------------|
|-----------------------------------|
|-----------------------------------|
|-(8)\----3---3-----6-(6)---6-8---6-|
|-(8)\--------------6-(6)---6-8---6-|
|-(8)\-3----3---3-3-6-(6)-3-6-8-3-6-|
|
| +S   E.     H               E   E
|-----------------------------------|
|-----------------------------------|
|-----------------------------------|
|-(8)\----------------------------6-|
|-(8)\----------------------------6-|
|-----------------------------------|


                                   Pre-Chorus
  Gtr I
      PM  PM  PM
  +S  S S S S S E  E +S   S +E  E   E   S  S  S  S  S  S  S  S  S  S Q
|---------------------------------|----------------------------------------|
|---------------------------------|----11-11-11-10-10-10-10-11-11-11-------|
|---------------------------------|----12-12-12-11-11-11-11-12-12-12-------|
|-(6)---3---3---------------------|----------------------------------------|
|-(6)--------------8-(8)--6-(6)-3-|----------------------------------------|
|-(6)-3---3---3----8-(8)--6-(6)-3-|----------------------------------------|
|
| Gtr II
|     PM  PM  PM
|  S  S S S S S E  E +S   S +E  E   H.                               S S E
|---------------------------------|----------------------------------------|
|---------------------------------|----------------------------------------|
|---------------------------------|-5------------------------------------5-|
|--6----3---3---------------------|-5------------------------------------5-|
|--6---------------8-(8)--6-(6)-3-|-3--------------------------------3-3-3-|
|--6--3---3---3----8-(8)--6-(6)-3-|----------------------------------------|
|
| Gtr III
|  H               E +S   S +E  E   W
|---------------------------------|----------------------------------------|
|---------------------------------|----------------------------------------|
|---------------------------------|-5--------------------------------------|
|--6\-----------------------------|-5--------------------------------------|
|--6\-------------/8-(8)-/6-(6)-3-|-3--------------------------------------|
|-----------------/8-(8)-/6-(6)-3-|----------------------------------------|


   S   S  S  S  S  S  S  S H
|-----------------------------------|
|-----11-11-11-11-10-10-10----------|
|-----12-12-12-12-11-11-11----------|
|-----------------------------------|
|-----------------------------------|
|-----------------------------------|
|
| +H                       E. S E e
|-----------------------------------|
|-----------------------------------|
|-(5)----------------------8\-------|
|-(5)----------------------8\-6-6-8-|
|-(3)----------------------6\-6-6-8-|
|-----------------------------6-6-8-|
|
|  H                       E. S E e
|-----------------------------------|
|-----------------------------------|
|--5-----------------------8\-------|
|--5-----------------------8\-6-6-8-|
|--3-----------------------6\-6-6-8-|
|-----------------------------6-6-8-|


                                                                Chorus
  S S  Q  S S +E   E Q     E +S   E   +S   E +S  S  S   S S E.   H    H
|-----------------------|--------------------------------------|-----------|
|-----------------------|--------------------------------------|-----------|
|-----------------------|--------------------------------------|-----------|
|-8-8\----8-8-(8)\------|-/8-(8)-/8---(8)-/8-(8)-6-------------|-3----1----|
|-8-8\----8-8-(8)\------|--------------------------------------|-3----1----|
|-8-8\----8-8-(8)\------|---------------------------6b7-3-8-6--|-3----1----|
|
| S S  Q  S S +E   E Q     E  E     Q         S  S  S   S S E.   H    H
|-----------------------|--------------------------------------|-----------|
|-----------------------|--------------------------------------|-----------|
|-----------------------|--------------------------------------|-----------|
|-8-8\----8-8-(8)\------|--8---------------------6-------------|-3----1----|
|-8-8\----8-8-(8)\------|--8-----------------------------------|-3----1----|
|-8-8\----8-8-(8)\------|--8------------------------6b7-3-8-6--|-3----1----|
|
| S S  Q  S S +E   E Q     E +S   E   +S   E +S  S  S   S S E.   H    H
|-----------------------|--------------------------------------|-----------|
|-----------------------|--------------------------------------|-----------|
|-----------------------|--------------------------------------|-----------|
|-8-8\----8-8-(8)\------|-/8-(8)-/8---(8)-/8-(8)-6-------------|-3----1----|
|-8-8\----8-8-(8)\------|--------------------------------------|-3----1----|
|-8-8\----8-8-(8)\------|--------------------------/7---3-8-6--|-3----1----|


     PM|     PM|                              PM    PM          PM
  Q  S S Q   S S Q       E. E. E E. E. E    E S S S S S +S  +S  S E E E
|----------------------|------------------|-----------------------------|
|----------------------|-4-----4-3--------|-----------------------------|
|-3------3-------3-----|----3-------3-----|-----------------------------|
|-3------3-------3-----|---------------3--|-----------------------------|
|-1--1-1-1---1-1-1-----|------------------|-6-3-6-8-3-6-(6)-(6)-3-3-3-3-|
|----------------------|------------------|-6-3-6-8-3-6-(6)-(6)-3-3-3-3-|
|
|    PM|           PM|                        PM    PM          PM
| Q  S S Q.      E S S   H       H          E S S S S S +S  +S  S E E E
|----------------------|------------------|-----------------------------|
|----------------------|------------------|-----------------------------|
|-3------3-------3-----|---------3--------|-----------------------------|
|-3------3-------3-----|-1-------3--------|-----------------------------|
|-1--1-1-1-------1-1-1-|-1-------1--------|-6-3-6-8-3-6-(6)-(6)-3-3-3-3-|
|----------------------|-1----------------|-6-3-6-8-3-6-(6)-(6)-3-3-3-3-|
|
| W                      H       H          W
|----------------------|------------------|-----------------------------|
|----------------------|------------------|-----------------------------|
|----------------------|------------------|-----------------------------|
|-8--------------------|-1-------8--------|-----------------------------|
|-8--------------------|-1-------8--------|-----------------------------|
|-8--------------------|-1-------8--------|-----------------------------|


                 PM|     PM|
  H    H      Q  S S Q   S S Q       E. E. E E. E. E
|-----------|----------------------|------------------|
|-----------|----------------------|-4-----4-3--------|
|-----------|-3------3-------3-----|----3-------3-----|
|-3----1----|-3------3-------3-----|---------------3--|
|-3----1----|-1--1-1-1---1-1-1-----|------------------|
|-3----1----|----------------------|------------------|
|
|                PM|           PM|
| H    H      Q  S S Q.      E S S   H       H
|-----------|----------------------|------------------|
|-----------|----------------------|------------------|
|-----------|-3------3-------3-----|---------3--------|
|-3----1----|-3------3-------3-----|-1-------3--------|
|-3----1----|-1--1-1-1-------1-1-1-|-1-------1--------|
|-3----1----|----------------------|-1----------------|
|
| H    H      W                      H       H
|-----------|----------------------|------------------|
|-----------|----------------------|------------------|
|-----------|----------------------|------------------|
|-3----1----|-8--------------------|-1-------8--------|
|-3----1----|-8--------------------|-1-------8--------|
|-3----1----|-8--------------------|-1-------8--------|


      PM  PM  PM|       PM    PM
  +S  S S S S E S S +S  S S S S  E
|-------------------------------------|
|-------------------------------------|
|-------------------------------------|
|-(3)---3---3-----6-(6)---6-8----6----|
|-----------------6-(6)---6-8----6----|
|-----3---3---3-3-6-(6)-3-6-8-3--6----|
|
|     PM  PM  PM|       PM    PM
| +S  S S S S E S S +S  S S S S  E
|-------------------------------------|
|-------------------------------------|
|-(3)---------------------------------|
|-(3)---3---3-----6-(6)---6-8----6----|
|-(1)-------------6-(6)---6-8----6----|
|-----3---3---3-3-6-(6)-3-6-8-3--6----|
|
|  H              Q         S E.
|-------------------------------------|
|-------------------------------------|
|-------------------------------------|
|-----------------------------6-------|
|-----------------------------6-------|
|-------------------------------------|


  Gtrs I, II
       PM  PM  PM|        PM    PM         PM  PM  PM|        PM    PM
  +S   S S S S E S S  +S  S S S S E   +S   S S S S E S S  +S  S S S S E
|-----------------------------------|-----------------------------------|
|-----------------------------------|-----------------------------------|
|-----------------------------------|-----------------------------------|
|-(6)----3---3-----6--(6)---6-8---6-|-(6)----3---3-----6--(6)---6-8---6-|
|-(6)--------------6--(6)---6-8---6-|-(6)--------------6--(6)---6-8---6-|
|-(6)--3---3---3-3-6--(6)-3-6-8-3-6-|-(6)--3---3---3-3-6--(6)-3-6-8-3-6-|
|
| Gtr III
| +H               Q.             E   +H               Q.             E
|-----------------------------------|-----------------------------------|
|-----------------------------------|-----------------------------------|
|-----------------------------------|-----------------------------------|
|-(6)\----------------------------6-|-(6)\----------------------------6-|
|-(6)\----------------------------6-|-(6)\----------------------------6-|
|-----------------------------------|-----------------------------------|


  1.
      PM  PM  PM
  +S  S S S S E S  E +S   S +E  E
|-----------------------------------||
|----------------------------------o||
|-----------------------------------||
|-(6)---3---3-----------------------||
|-(6)--------------8-(8)--6-(6)-3--o||
|-(6)-3---3---3----8-(8)--6-(6)-3---||
|
| +H               E +S   S +E  E
|-----------------------------------||
|----------------------------------o||
|-----------------------------------||
|-(6)-------------------------------||
|-(6)-------------/8-(8)-/6-(6)-3--o||
|-----------------/8-(8)-/6-(6)-3---||


                                     Interlude
  2.
  Gtrs I, II                          Gtr I
     PM  PM  PM                PM|
  S  S S S S E S  E +S   S +E  S S     W
|----------------------------------||------------|
|----------------------------------||------------|
|----------------------------------||------------|
|-6----3---3-----------------------||------------|
|-6---------------8-(8)--6-(6)-3-3-||--3---------|
|-6--3---3---3----8-(8)--6-(6)-3-3-||--3---------|
|
| Gtr III                             Gtr III
| H               E +S   S +E  E      +W
|----------------------------------||------------|
|----------------------------------||------------|
|----------------------------------||------------|
|-6\-------------------------------||------------|
|-6\-------------/8-(8)-/6-(6)-3---||-(3)--------|
|----------------/8-(8)-/6-(6)-3---||-(3)--------|
|
|    Gtr IV
| W                                    W
|----------------------------------||------------|
|----------------------------------||--6---------|
|----------------------------------||--5---------|
|----------------------------------||--3---------|
|----------------------------------||--3---------|
|----------------------------------||------------|


  W           W          Q.    E  +Q     E   E
|-----------|----------|-------------------------|
|-----------|----------|-------------------------|
|-----------|----------|------14-(14)\--10-/14---|
|-----------|----------|-------------------------|
|-----------|----------|-------------------------|
|-----------|----------|-------------------------|
|
| W           W          Q.    E  +Q     E   E
|-----------|----------|-------------------------|
|-----------|----------|-------------------------|
|-----------|----------|-------------------------|
|-----------|----------|-------7--(7)\---3--/7---|
|-----------|----------|-------------------------|
|-----------|----------|-------------------------|
|
| H    H      W          H         H
|-----------|----------|-------------------------|
|-4----3----|-6--------|-4---------3-------------|
|-3----3----|-5--------|-3---------3-------------|
|-1----3----|-3--------|-1---------3-------------|
|-1----1----|-3--------|-1---------1-------------|
|-----------|----------|-------------------------|


  Gtr I
                              <
    ~~~~
   +W            +Q    Q.     E  +Q
|-------------|-----------------------|
|-------------|-----------------------|
|-(14)--------|-(14)\--------10-(10)--|
|-------------|-----------------------|
|-------------|-----------------------|
|-------------|-----------------------|
|
| Gtr III
|   ~~~~
|  +W            +Q    H.
|-------------|-----------------------|
|-------------|-----------------------|
|-------------|-----------------------|
|--(7)--------|--(7)\-----------------|
|-------------|-----------------------|
|-------------|-----------------------|
|
| Gtr IV
|   W             H        H
|-------------|-----------------------|
|---6---------|---4--------3----------|
|---5---------|---3--------3----------|
|---3---------|---1--------3----------|
|---3---------|---1--------1----------|
|-------------|-----------------------|


   +Q    H      +Q      +Q   E  Q   Q   E
|--------------------|---------------------|
|--------------------|---------------------|
|-(10)\--5------(5)--|--(5)----------------|
|--------------------|---------/7---8--10--|
|--------------------|---------------------|
|--------------------|---------------------|
|
|   Q.      Q.   Q      +Q
|--------------------|---------------------|
|--------------------|---------------------|
|----------14s==10---|-(10)----------------|
|--------------------|---------------------|
|--------------------|---------------------|
|--------------------|---------------------|
|
|   W                    H        H
|--------------------|---------------------|
|---6----------------|---4--------3--------|
|---5----------------|---3--------3--------|
|---3----------------|---1--------3--------|
|---3----------------|---1--------1--------|
|--------------------|---------------------|


    Q   +Q    H       +Q    H     E  E
|------------------|-------------------|
|------------------|----------------10-|
|------------------|-------------------|
|-/12--(12)s=10----|-(10)\--------8S10-|
|------------------|-------------------|
|------------------|-------------------|
|
|   W                  W
|------------------|-------------------|
|------------------|-------------------|
|------------------|-------------------|
|------------------|-------------------|
|------------------|-------------------|
|------------------|-------------------|
|
|   W                  H       H
|------------------|-------------------|
|---6--------------|---4-------3-------|
|---5--------------|---3-------3-------|
|---3--------------|---1-------3-------|
|---3--------------|---1-------1-------|
|------------------|-------------------|


   +Q     +H      +E   +E     H        Q   E  E
|--------------------------|-------------------------|
|-(10)---(10)----(10)-(10)s|=11----------------------|
|--------------------------|-----------------12b14===|
|-(10)---(10)----(10)-(10)s|=11----------------------|
|--------------------------|-------------------------|
|--------------------------|-------------------------|
|
|   E  E  +H.                 E E +H       E  E
|--------------------------|-------------------------|
|--------------------------|-----------------11b13===|
|--------------------------|-------------------------|
|---8s10-(10)--------------|----8-(8)s====12---------|
|--------------------------|-------------------------|
|--------------------------|-------------------------|
|
|   W                         H        H
|--------------------------|-------------------------|
|---6----------------------|--4--------3-------------|
|---5----------------------|--3--------3-------------|
|---3----------------------|--1--------3-------------|
|---3----------------------|--1--------1-------------|
|--------------------------|-------------------------|


   +H      +E    E      E  E    +H      +E   Q.
|----------------------------|-----------------------|
|-------------------------11-|-(11)----(11)-11pb13r==|
|-(12)----(12)r-12pb14r10----|-----------------------|
|----------------------------|-----------------------|
|----------------------------|-----------------------|
|----------------------------|-----------------------|
|
|  +H      +E    E      E  E    +H      +E   Q.
|-------------------------10-|-(10)----(10)-10pb12r==|
|-(11)----(11)r-11pb13r10----|-----------------------|
|----------------------------|-----------------------|
|----------------------------|-----------------------|
|----------------------------|-----------------------|
|----------------------------|-----------------------|
|
|   W                            H       H
|----------------------------|-----------------------|
|---6------------------------|---4-------3-----------|
|---5------------------------|---3-------3-----------|
|---3------------------------|---1-------3-----------|
|---3------------------------|---1-------1-----------|
|----------------------------|-----------------------|


                         ~~~~~~~~~~~~~~~
   S  S  E  +E   E      +H        +Q     H      S  S  E
|------------------------------|-------------------------|
|------------------------------|-------------------------|
|-13-12-10-(10)-12b14==(12)----|-(12)r\--------------10--|
|------------------------------|---------------10-12-----|
|------------------------------|-------------------------|
|------------------------------|-------------------------|
|
|                        ~~~~~~~~~~~~~~~
|  S  S  E   E   E      +H        +Q     H      S  S  E
|------------------------------|-------------------------|
|-12-11-10--10--11b13==(11)----|-(11)r---------------10--|
|------------------------------|----------------(b9)10-----|
|------------------------------|-------------------------|
|------------------------------|-------------------------|
|------------------------------|-------------------------|
|
|  W                               H        H
|------------------------------|-------------------------|
|--6---------------------------|---4--------3------------|
|--5---------------------------|---3--------3------------|
|--3---------------------------|---1--------3------------|
|--3---------------------------|---1--------1------------|
|------------------------------|-------------------------|


   Q.    Q       +E       E  E    +Q.    H      E
|------------------------------|---------------------|
|---------------------------11-|-(11)---13-----13b15r|
|-10----12b14===(12)pb14r10----|---------------------|
|------------------------------|---------------------|
|------------------------------|---------------------|
|------------------------------|---------------------|
|
|  Q.    Q       +E       E  E    +Q.    H      E
|---------------------------10-|-(10)---12-----12b14r|
|-10----11b13---(11)pb13r10----|---------------------|
|------------------------------|---------------------|
|------------------------------|---------------------|
|------------------------------|---------------------|
|------------------------------|---------------------|
|
|  W                               H       H
|------------------------------|---------------------|
|--6---------------------------|---4-------3---------|
|--5---------------------------|---3-------3---------|
|--3---------------------------|---1-------3---------|
|--3---------------------------|---1-------1---------|
|------------------------------|---------------------|


    ~~~~            ~~~~~~~~      ~~
                    |--3--|    |--3--|
   +H      +E    E  E  E  E    E  E  E  E   E  H
|------------------13----13-|----13---------------------|
|-(13)----(13)-/13----13----|-13----13s11---------------|
|---------------------------|-------------/12s10\-------|
|---------------------------|---------------------------|
|---------------------------|---------------------------|
|---------------------------|---------------------------|
|
|   ~~~~
|  +H       H                  H               Q   Q
|-(12)----------------------|---------------------------|
|---------------------------|---------------------------|
|---------------------------|---------------------------|
|---------------------------|---------------------------|
|---------------------------|---------------------------|
|---------------------------|----------------------x\---|
|
|   W                          H               H
|---------------------------|---------------------------|
|---6-----------------------|--4---------------3--------|
|---5-----------------------|--3---------------3--------|
|---3-----------------------|--1---------------3--------|
|---3-----------------------|--1---------------1--------|
|---------------------------|---------------------------|


 Solo
  Gtr I
                                                      ~
  S S S S E S S S S E Q     S S S S E S   +S  S S S S Q
|-------------------------|------------------------------|
|-------------------------|------------------------------|
|-------------------------|------------------------------|
|-------------------------|-----------6b8-(6)-3-6-8-3-6--|
|-3-3-3-3---3-3-3-3---3\--|-3-3-3-3----------------------|
|-3-3-3-3---3-3-3-3---3\--|-3-3-3-3----------------------|
|
| Gtr II
| S S S S E S S S S E Q     S S S S E S    S  S S S S Q
|-------------------------|------------------------------|
|-------------------------|------------------------------|
|-------------------------|------------------------------|
|-------------------------|------------------------------|
|-3-3-3-3---3-3-3-3---3\--|-3-3-3-3---6----8--3-6-8-3-6--|
|-3-3-3-3---3-3-3-3---3\--|-3-3-3-3---6----8--3-6-8-3-6--|


                            ~
  S S S S E S   +S  S S S S Q
|------------------------------|
|------------------------------|
|------------------------------|
|-----------6b8-(6)-3-6-8-3-6--|
|-3-3-3-3----------------------|
|-3-3-3-3----------------------|
|
| S S S S E S    S  S S S S Q
|------------------------------|
|------------------------------|
|------------------------------|
|------------------------------|
|-3-3-3-3---6----8--3-6-8-3-6--|
|-3-3-3-3---6----8--3-6-8-3-6--|


  S S S S E S   +S  S S S S S S S S
|-----------------------------------|
|-----------------------------------|
|-----------------------------------|
|-----------6b8-(6)-3-6-8-3-6-8-3-6-|
|-3-3-3-3---------------------------|
|-3-3-3-3---------------------------|
|
| S S S S E S    S  S S S S S S S S
|-----------------------------------|
|-----------------------------------|
|-----------------------------------|
|-----------------------------------|
|-3-3-3-3---6----8--3-6-8-3-6-8-3-6-|
|-3-3-3-3---6----8--3-6-8-3-6-8-3-6-|


  E S S S S E +S  S E Q    E S S S S E +S  S E Q
|------------------------|-------------------------|
|------------------------|-------------------------|
|------------------------|-------------------------|
|-6-3-6-8-3-6-(6)-3-3-3--|-6-3-6-8-3-6-(6)-3-3-3---|
|------------------------|-------------------------|
|------------------------|-------------------------|
|
| E S S S S E +S  S E Q    E S S S S E +S  S E Q
|------------------------|-------------------------|
|------------------------|-------------------------|
|------------------------|-------------------------|
|------------------------|-------------------------|
|-6-3-6-8-3-6-(6)-3-3-3--|-6-3-6-8-3-6-(6)-3-3-3---|
|-6-3-6-8-3-6-(6)-3-3-3--|-6-3-6-8-3-6-(6)-3-3-3---|


  E S S S S E +S  S E Q    E S S S S E +S  S E Q     E S E S E    +E  E Q
|------------------------|------------------------|-------------------------|
|------------------------|------------------------|-------------------------|
|------------------------|------------------------|-------------------------|
|-6-3-6-8-3-6-(6)-3-3-3--|-6-3-6-8-3-6-(6)-3-3-3--|--6-3-8-3-6b7==(6)-3-3---|
|------------------------|------------------------|-------------------------|
|------------------------|------------------------|-------------------------|
|
| E S S S S E +S  S E Q    E S S S S E +S  S E Q     W
|------------------------|------------------------|-------------------------|
|------------------------|------------------------|-------------------------|
|------------------------|------------------------|-------------------------|
|------------------------|------------------------|-13----------------------|
|-6-3-6-8-3-6-(6)-3-3-3--|-6-3-6-8-3-6-(6)-3-3-3--|-13----------------------|
|-6-3-6-8-3-6-(6)-3-3-3--|-6-3-6-8-3-6-(6)-3-3-3--|-13----------------------|


   E S E S E   +E  E Q     E S E S E   +E  E Q
|-----------------------|-----------------------|
|-----------------------|-----------------------|
|-----------------------|-----------------------|
|--6-3-8-3-6b7-(6)-3-3--|--6-3-8-3-6b7-(6)-3-3--|
|-----------------------|-----------------------|
|-----------------------|-----------------------|
|
|  W                       W
|-----------------------|-----------------------|
|-----------------------|-----------------------|
|-----------------------|-----------------------|
|-12--------------------|-11--------------------|
|-12--------------------|-11--------------------|
|-12--------------------|-11--------------------|


   E S E S E   +E  E Q    E S E S E   +E  E Q
|-----------------------|-----------------------|
|-----------------------|-----------------------|
|-----------------------|-----------------------|
|--6-3-8-3-6b7-(6)-3-3--|-6-3-8-3-6b7-(6)-3-3---|
|-----------------------|-----------------------|
|-----------------------|-----------------------|
|
|  W                      W
|-----------------------|-----------------------|
|-----------------------|-----------------------|
|-----------------------|-----------------------|
|-10--------------------|-8---------------------|
|-10--------------------|-8---------------------|
|-10--------------------|-8---------------------|


  Gtr I
                PM
  E S E S E +E. e S E   S S S S S   S S S  E   S  S   +S  S E
|---------------------|---------------------------------------|
|---------------------|---------------------------------------|
|---------------------|---------1b2---------------------------|
|-6-3-6-3-8-(8)-3-8-6-|---1-3-------3-1-3------3----------3---|
|---------------------|-3-----3-------------------------------|
|---------------------|--------------------7b8----5b6-(5)---3-|
|
| Gtr II
|               PM
| E S E S E +E. e S E   E   E   Q          E.     S   +E    E
|---------------------|---------------------------------------|
|---------------------|---------------------------------------|
|---------------------|---------------------------------------|
|---------------------|---------------------------------------|
|-6-3-6-3-8-(8)-3-8-6-|-3------------------8------6---(6)---3-|
|-6-3-6-3-8-(8)-3-8-6-|-3------------------8------6---(6)---3-|
|
| Gtr III
| W                     H                  E.     S   +E    E
|---------------------|---------------------------------------|
|---------------------|---------------------------------------|
|---------------------|---------------------------------------|
|---------------------|---------------------------------------|
|---------------------|-------------------/8-----/6---(6)---3-|
|---------------------|-------------------/8-----/6---(6)---3-|


  +E  E S S E  E   S  S   +S  S E
|---------------------------------|
|---------------------------------|
|---------------------------------|
|------------------3----------3---|
|---------------------------------|
|-(3)-3-3-3----7b8----5b6-(5)---3-|
|
| +E  E S S E  E.     S   +E    E
|---------------------------------|
|---------------------------------|
|---------------------------------|
|---------------------------------|
|-(3)-3-3-3----8------6---(6)---3-|
|-(3)-3-3-3----8------6---(6)---3-|
|
|  E  E S S E  E.     S   +E    E
|---------------------------------|
|---------------------------------|
|---------------------------------|
|---------------------------------|
|--3--3-3-3---/8-----/6---(6)---3-|
|--3--3-3-3---/8-----/6---(6)---3-|


            |---3---|
   S  S S S S   +S  S S S  E   S  S   +S  S E
|---------------------------------------------|
|---------------------------------------------|
|-----------1b2r(1)---------------------------|
|-----1-3-----------3-1-3------3----------3---|
|--3------3-----------------------------------|
|--------------------------7b8----5b6-(5)---3-|
|
| +E    E   Q              E.     S   +E    E
|---------------------------------------------|
|---------------------------------------------|
|---------------------------------------------|
|---------------------------------------------|
|-(3)----------------------8------6---(6)---3-|
|-(3)----------------------8------6---(6)---3-|
|
| +E    E   Q              E.     S   +E    E
|---------------------------------------------|
|---------------------------------------------|
|---------------------------------------------|
|---------------------------------------------|
|-(3)---------------------/8-----/6---(6)---3-|
|-(3)---------------------/8-----/6---(6)---3-|


                                   Verse 3
  +E  E S S E  E   S  S   +S  S E   +W
|---------------------------------|--------|
|---------------------------------|--------|
|---------------------------------|--------|
|------------------3----------3---|--------|
|---------------------------------|--------|
|-(3)-3-3-3----7b8----5b6-(5)---3-|-(3)----|
|
| +E  E S S E  E.     S   +E    E   +W
|---------------------------------|--------|
|---------------------------------|--------|
|---------------------------------|--------|
|---------------------------------|--------|
|-(3)-3-3-3----8------6---(6)---3-|-(3)----|
|-(3)-3-3-3----8------6---(6)---3-|-(3)----|
|
| +E  E S S E  E.     S   +E    E    W
|---------------------------------|--------|
|---------------------------------|--------|
|---------------------------------|--------|
|---------------------------------|--------|
|-(3)-3-3-3---/8-----/6---(6)---7s|==8-----|
|-(3)-3-3-3---/8-----/6---(6)-----|--------|


  +H     +E   Q.     E  E H    E S S   E S E S E S E S S S S S
|------------------|-----------------|-------------------------|
|------------------|-----------------|-------------------------|
|------------------|-----------------|-------------------------|
|------------------|-----------------|---3---3---3---3---------|
|------------------|-3\--------------|-6---5---3---------------|
|-(3)----(3)-/x\---|-3\----------6-3-|-------------8---6-5-3-1-|
|
| +H     +E   Q.     E  E H    E S S   E S E S E S E S S S S S
|------------------|-----------------|-------------------------|
|------------------|-----------------|-------------------------|
|------------------|-----------------|-------------------------|
|------------------|-----------------|---3---3---3---3---------|
|------------------|-3\--------------|-6---5---3---------------|
|-(3)----(3)-/x\---|-3\----------6-3-|-------------8---6-5-3-1-|
|
| +H     +E   Q.     W                 W
|------------------|-----------------|-------------------------|
|------------------|-----------------|-------------------------|
|------------------|-----------------|-------------------------|
|------------------|-----------------|-------------------------|
|-(8)----(8)--8\---|-----------------|-------------------------|
|------------------|-----------------|-------------------------|


  E   S  S  S  S  S  S  S  S  S  S Q
|----------------------------------------|
|----11-11-11-10-10-10-10-11-11-11-------|
|----12-12-12-11-11-11-11-12-12-12-------|
|----------------------------------------|
|----------------------------------------|
|----------------------------------------|
|
| H.                               S S E
|----------------------------------------|
|----------------------------------------|
|-5------------------------------------5-|
|-5------------------------------------5-|
|-3--------------------------------3-3-3-|
|----------------------------------------|
|
| W
|----------------------------------------|
|----------------------------------------|
|-5--------------------------------------|
|-5--------------------------------------|
|-3--------------------------------------|
|----------------------------------------|


  S  S  S  S  S  S  S  S H          S S  Q  S S +E   E Q
|---------------------------------|-----------------------|
|---11-11-11-11-10-10-10----------|-----------------------|
|---12-12-12-12-11-11-11----------|-----------------------|
|---------------------------------|-8-8\----6-8-(8)\------|
|---------------------------------|-8-8\----6-8-(8)\------|
|---------------------------------|-8-8\----6-8-(8)\------|
|
| H                      E. S E e   S S  Q  S S +E   E Q
|---------------------------------|-----------------------|
|---------------------------------|-----------------------|
|-5----------------------8\-------|-----------------------|
|-5----------------------8\-6-6-8-|-8-8\----6-8-(8)\------|
|-3----------------------6\-6-6-8-|-8-8\----6-8-(8)\------|
|---------------------------6-6-8-|-8-8\----6-8-(8)\------|
|
| H                      E. S E e   S S  Q  S S +E   E Q
|---------------------------------|-----------------------|
|---------------------------------|-----------------------|
|-5----------------------8\-------|-----------------------|
|-5----------------------8\-6-6-8-|-8-8\----6-8-(8)\------|
|-3----------------------6\-6-6-8-|-8-8\----6-8-(8)\------|
|---------------------------6-6-8-|-8-8\----6-8-(8)\------|


                                           Chorus
   E +S   E    +S   E +S  S  S   S S E.     H    H
|---------------------------------------||------------|
|---------------------------------------||o-----------|
|---------------------------------------||------------|
|-/8-(8)-/8----(8)-/8-(8)-6-------------||--3----1----|
|---------------------------------------||o-3----1----|
|----------------------------6b7-3-8-6--||--3----1----|
|
|  E  E     H.                              H    H
|---------------------------------------||------------|
|---------------------------------------||o-----------|
|---------------------------------------||------------|
|--8------------------------------------||--3----1----|
|--8------------------------------------||o-3----1----|
|--8------------------------------------||--3----1----|
|
|  E +S   E    +S   E +S  S  S   S S E.     H    H
|---------------------------------------||------------|
|---------------------------------------||o-----------|
|---------------------------------------||------------|
|-/8-(8)-/8----(8)-/8-(8)-6-------------||--3----1----|
|---------------------------------------||o-3----1----|
|---------------------------/7---3-8-6--||--3----1----|


     PM|     PM|                              PM    PM          PM
  Q  S S Q   S S Q       E. E. E E. E. E    E S S S S S +S  +S  S E E E
|----------------------|------------------|-----------------------------|
|----------------------|-4-----4-3--------|-----------------------------|
|-3------3-------3-----|----3-------3-----|-----------------------------|
|-3------3-------3-----|---------------3--|-----------------------------|
|-1--1-1-1---1-1-1-----|------------------|-6-3-6-8-3-6-(6)-(6)-3-3-3-3-|
|----------------------|------------------|-6-3-6-8-3-6-(6)-(6)-3-3-3-3-|
|
|    PM|           PM|                        PM    PM          PM
| Q  S S Q.      E S S   H       H          E S S S S S +S  +S  S E E E
|----------------------|------------------|-----------------------------|
|----------------------|------------------|-----------------------------|
|-3------3-------3-----|---------3--------|-----------------------------|
|-3------3-------3-----|-1-------3--------|-----------------------------|
|-1--1-1-1-------1-1-1-|-1-------1--------|-6-3-6-8-3-6-(6)-(6)-3-3-3-3-|
|----------------------|-1----------------|-6-3-6-8-3-6-(6)-(6)-3-3-3-3-|
|
| W                      H       H          W
|----------------------|------------------|-----------------------------|
|----------------------|------------------|-----------------------------|
|----------------------|------------------|-----------------------------|
|-8--------------------|-1-------8--------|-----------------------------|
|-8--------------------|-1-------8--------|-----------------------------|
|-8--------------------|-1-------8--------|-----------------------------|


                 PM|     PM|
  H    H      Q  S S Q   S S Q
|-----------|----------------------|
|-----------|----------------------|
|-----------|-3------3-------3-----|
|-3----1----|-3------3-------3-----|
|-3----1----|-1--1-1-1---1-1-1-----|
|-3----1----|----------------------|
|
|                PM|           PM|
| H    H      Q  S S Q.      E S S
|-----------|----------------------|
|-----------|----------------------|
|-----------|-3------3-------3-----|
|-3----1----|-3------3-------3-----|
|-3----1----|-1--1-1-1-------1-1-1-|
|-3----1----|----------------------|
|
| H    H      W
|-----------|----------------------|
|-----------|----------------------|
|-----------|----------------------|
|-3----1----|-8--------------------|
|-3----1----|-8--------------------|
|-3----1----|-8--------------------|


                        PM  PM  PM|       PM    PM
  E. E. E E. E. E    S  S S S S E S S  S  S S S S E
|------------------|---------------------------------||
|-4-----4-3--------|--------------------------------o||
|----3-------3-----|---------------------------------||
|---------------3--|------3---3-----6-(6)---6-8---6--||
|------------------|----------------6-(6)---6-8---6-o||
|------------------|----3---3---3-3----6--3-6-8-3-6--||
|
|                       PM  PM  PM|       PM    PM
| H       H          S  S S S S E S S  S  S S S S E
|------------------|---------------------------------||
|------------------|--------------------------------o||
|---------3--------|---------------------------------||
|-1-------3--------|------3---3-----6-(6)---6-8---6--||
|-1-------1--------|----------------6-(6)---6-8---6-o||
|-1----------------|----3---3---3-3----6--3-6-8-3-6--||
|
| H       H          H.                       E   E
|------------------|---------------------------------||
|------------------|--------------------------------o||
|------------------|---------------------------------||
|-1-------8--------|------------------------------6--||
|-1-------8--------|------------------------------6-o||
|-1-------8--------|---------------------------------||


  Gtrs I, II
      PM  PM  PM|       PM    PM         PM  PM  PM|       PM    PM
  +S  S S S S E S S  S  S S S S E   +S   S S S S E S S +S  S S S S E
|---------------------------------|----------------------------------|
|---------------------------------|----------------------------------|
|---------------------------------|----------------------------------|
|-(6)---3---3-----6-(6)---6-8---6-|-(6)----3---3-----6-(6)---6-8---6-|
|-(6)-------------6-(6)---6-8---6-|-(6)--------------6-(6)---6-8---6-|
|-(6)-3---3---3-3----6--3-6-8-3-6-|-(6)--3---3---3-3-6-(6)-3-6-8-3-6-|
|
| Gtr III
|  H              Q         E   E   +H               Q         E   E
|---------------------------------|----------------------------------|
|---------------------------------|----------------------------------|
|---------------------------------|----------------------------------|
|--6\---------------------------6-|-(6)\---------------------------6-|
|--6\---------------------------6-|-(6)\---------------------------6-|
|---------------------------------|----------------------------------|


       PM  PM  PM
  +S   S S S S S E  E +S   S +E  E    S  S  S  S E  S  S  S  S   E     Q
|----------------------------------|------------------------------------------|
|----------------------------------|------------------------------------------|
|----------------------------------|------------------------------------------|
|-(6)----3---3---------------------|------------------------------------------|
|-(6)---------------8-(8)--6-(6)-3-|--3--3--3--3----3--3--3--3---------3\-----|
|-(6)--3---3---3----8-(8)--6-(6)-3-|--3--3--3--3----3--3--3--3---------3\-----|
|
| +H                E +S   S +E  E    S  S  S  S E  S  S  S  S  +E     E   E
|----------------------------------|------------------------------------------|
|----------------------------------|------------------------------------------|
|----------------------------------|-10-10-10-10---10-10-10-10-(10)\----------|
|-(6)\-----------------------------|------------------------10-(10)\--13s=14--|
|-(6)\-------------/8-(8)-/6-(6)-3-|------------------------------------------|
|------------------/8-(8)-/6-(6)-3-|------------------------------------------|


  Gtr I
                           ~~
   S  S S S E  E S S  S S  Q
|-----------------------------|
|-----------------------------|
|-----------------------------|
|--------------6-3-6--8-3--6--|
|--3--3-3-3----6-3-6--8-3--6--|
|--3--3-3-3-------------------|
|
| Gtr II
|                          ~~
|  S  S S S E  E S S  S S  Q
|-----------------------------|
|-----------------------------|
|-----------------------------|
|-----------------------------|
|--3--3-3-3----6-3-6--8-3--6--|
|--3--3-3-3----6-3-6--8-3--6--|
|
| Gtr III
|  Q        E  E S S  S S  Q
|-----------------------------|
|-----------------------------|
|-10\---------/8-5-8s10-5-/8--|
|-10\-------------------------|
|-----------------------------|
|-----------------------------|


                               ~~~
   S  S  S   S E E S  S +S  S  Q    S S  S S E  Q   Q.
|---------------------------------|----------------------||
|---------------------------------|----------------------||
|---------------------------------|----------------------||
|----------------6-3-/8-(8)-3--6--|-------------3\-------||
|--3--3--3---3---6-3-/8-(8)-3--6--|-3-3--3-3----3\-------||
|--3--3--3---3--------------------|-3-3--3-3----3\-------||
|
|                     ~~       ~~~
|  S  S  S   S E E S  S +S  S  Q    S S  S S E  Q   Q.
|---------------------------------|----------------------||
|---------------------------------|----------------------||
|---------------------------------|----------------------||
|----------------6----------------|-------------3\-------||
|--3--3--3---3---6-3-/8-(8)-3--6--|-3-3--3-3----3\-------||
|--3--3--3---3---6-3--8-(8)-3--6--|-3-3--3-3----3\-------||
|
| +E    +Q       E S  S +S  S  Q    E    E   E  Q   Q.
|---------------------------------|----------------------||
|---------------------------------|----------------------||
|-(8)---(8)\----------------------|----------------------||
|----------------6-3--8-(8)-3-10s=|=9s==10-----10\-------||
|---------------------------------|----------------------||
|---------------------------------|----------------------||


Duration Legend
---------------
W - whole; H - half; Q - quarter; E - 8th; S - 16th; T - 32nd; X - 64th; a - acciaccatura
+ - note tied to previous; . - note dotted; .. - note double dotted
Uncapitalized letters represent notes that are staccato (1/2 duration)
Irregular groupings are notated above the duration line
Duration letters will always appear directly above the note/fret number it represents the
duration for.  Duration letters with no fret number below them represent rests.  Multi-
bar rests are notated in the form Wxn, where n is the number of bars to rest for.  Low
melody durations appear below the staff

Tablature Legend
----------------
 h   - hammer-on
 p   - pull-off
 b   - bend
 pb  - pre-bend
 r   - bend release (if no number after the r, then release immediately)
 /\  - slide into or out of (from/to "nowhere")
 s   - legato slide
 S   - shift slide
  - natural harmonic
[n]  - artificial harmonic
n(n) - tapped harmonic
 ~   - vibrato
 tr  - trill
 T   - tap
 TP  - trem. picking
 PM  - palm muting

/  - tremolo bar dip; n = amount to dip
 
  - tremolo bar down
 n/  - tremolo bar up
/n\  - tremolo bar inverted dip
 =   - hold bend; also acts as connecting device for hammers/pulls
 <>  - volume swell (louder/softer)
 x   - on rhythm slash represents muted slash
 o   - on rhythm slash represents single note slash

Misc Legend
-----------
 |  - bar
||  - double bar
||o - repeat start
o|| - repeat end
*|  - double bar (ending)
 :  - bar (freetime)
 $  - Segno
 &  - Coda
Tempo markers -  = BPM(8/16=s8/s16), where s8 = swing 8ths, s16 = swing 16ths
Show more