• Song:

    Slide It In

  • Artist:

    Whitesnake

  • Album:

    Here I Go Again: The Wh...

git1
 |-riff 1--------*--------|
|-------------|--h---------|-------------|--h-----------|
|-2--3-2------|-78-8-7-8-7-|-2--3-2------|-78-8-7-8-7---|
|-2--2-2------|-7--7-7-7-7-|-2--2-2------|-7--7-7-7-7---|
|-2--4-2------|-79-9-7-9-7-|-2--4-2------|-79-9-7-9-7---|
|-------------|------------|-------------|----------/10\|
|-------------|------------|-------------|--------------|
                *hammer-on B and                   git2
                 D-string notes

git2(with riff1, through first part of verses)

|------------|------------|------------|----------------|
|------------|------------|------------|----------------|
|------------|--h---------|------------|--h-------------|
|-2--4-2-----|-79-9-7-9-7-|-2--4-2-----|-79-9-7-9-7--s--|
|-0--0-0-----|-0--0-0-0-0-|-0--0-0-----|-0--0-0-0-0-24-0|
|------------|------------|------------|----------------|
                                               s:here a quick grace note slide
        |p.m.-------|          |---|        |-----------|          
|----------------|------------------|----------------|------------------|
|----------------|------------------|----------------|------------------|
|----------------|----h-------------|----------------|----h-------------|
|-2--4-2---------|---79-9-7-9-7-----|-2--4-2---------|---79-9-7-9-7-----|
|-0--0-0-0-0-0-0-|-0-0--0-0-0-0-0-0-|-0--0-0-0-0-0-0-|-0-0--0-0-0-0-----|
|----------------|------------------|----------------|--------------12\-|
                                                               
Chorus:

|--------------|------------|--------------|-----------------------------|
|-3----3-------|----3-3-----|-3----3-------|-------3---3--p--------------|
|-0----2-----2-|-2--2-3-----|-0----2-----2-|-2-----2---2-2-0--p-p--------|
|-0----0-----2-|-2--0-0-----|-0----0-----2-|-2-----0---0-----4-2-0--p-p--|
|------------0-|-0----------|------------0-|-0---------------------4-2-0-|
|-3------------|------------|-3------------|-----------------------------|



|--------------|------------|--------------|-------------|       
|-3----3-------|----3-3-----|-3----3-----3-|---3----3--3-|       
|-0----2-----2-|-2--2-2-----|-0----2-----0-|---2----0--0-|w.riff1
|-0----0-----2-|-2--0-0-----|-0----0-----0-|---0----0--0-| |-2-| 
|------------0-|-0----------|--------------|-------------|       
|-3------------|------------|-3----------3-|--------3--3-|       


                            Before the solo:
|------------|-----------|   |-------------|------------|
|-2--3-2---3-|-(3)-------|   |-3----3----3-|--3----3--3-|
|-2--2-2---0-|-(0)-------|   |-0----2----0-|--2----0--2-|
|-2--4-----0-|-(0)-------|   |-0----0----0-|--0-------0-|
|------------|-----------|   |-------------|-------3----|
|----------3-|-(3)-------|   |-3---------3-|------------|

Solo: I haven't written down the solo(mostly because I can't play it all:)),
but here is the rythm part behind it. It is a great chord progression to solo
over! Play it four times.

|------------|------------|-------------|-----------------| Last time play
|-3----------|-3----------|-0-----------|---5-5-5----7-7--| last bar twice.
|-0----------|-2----------|-0-----------|---5-5-5----7-7--|
|-0----------|-0----------|-2-----------|---5-5-5----7-7--|
|------------|------------|-2-----------|---3-3-3----5-5--|
|-3----------|-2----------|-0-----------|-----------------|
                       

Then there is another verse and chorus, before the song ends like this.

|--------------|-------------|
|-6-----3------|-(3)---------|
|-5--5--2------|-(2)---------|
|-3--5--0------|-(0)---------|
|----3---------|-------------|
|--------------|-------------|
Show more