• Song:

    Spit It Out

  • Artist:

    Whitesnake

  • Album:

    Here I Go Again: The Wh...

* * Repeat Once Unless Stated 
sl  Slide 
 
 
   Main Riff                   x5 
E||---0------2---2-2-2-2-----0---| 
B||*--0------3---2-3-2-3-----0--*| 
G||---1---4--2---2-2-2-2--2--1---| 
D||---2---4--0---0-0-0-0--2--2---| 
A||*--2---2---------------0--2--*| 
E||---0----------------------0---| 
 
   Main Riff (Altered)            Bridge 
E||---0------2---2-2-2-2---------|---------------| 
B||---0------3---2-3-2-3---------|---------------| 
G||---1---4--2---2-2-2-2--2--4---|---2--4-4--2---| 
D||---2---4--0---0-0-0-0--2--4---|---2--4-4--2---| 
A||---2---2---------------0--2---|---0--2-2--0---| 
E||---0--------------------------|---------------| 
 
   Chorus                               x2 
E||---------------------------------------| 
B||*-------------------------------------*| 
G||---------------------------------2-2---| 
D||---------------------------------2-2---| 
A||*--------5---------5---------5---0-0--*| 
E||---0-3-4-----0-3-4-----0-3-4-----------| 
 
Then Repeat: 
Main Riff x3 
Main Riff (Altered) 
Bridge 
Chorus x 2 
                     X3 
E||--------------------|----------------------| 
B||*---sl-----sl------*|----sl-----sl---------| 
G||---(b9)-7---7--5------|---(b9)-7-7-7--5-5------| 
D||---7--5---5--3--2---|---7--5-5-5--3-3--2---| 
A||*---------------0--*|------------------0---| 
E||--------------------|----------------------| 
 
Repeat the above 2 bars 2 more times 
 
E||---------------------------| 
B||---------------------------| 
G||---------------------------| 
D||---2-2-2-2-2-2-2-2-2-2-2---| 
A||---2-2-2-2-2-2-2-2-2-2-2---| 
E||---0-0-0-0-0-0-0-0-0-0-0---| 
 
Solo 
 
 
E||-----------------| 
B||-----------------| 
G||--4-4-2--4-4-2---| 
D||--4-4-2--4-4-2---| 
A||--2-2-0--2-2-0---| 
E||-----------------| 
 
Then Repeat: 
Main Riff  
Main Riff (Altered) 
Bridge 
Chorus x 2 
 
E||----------------------| 
B||----------------------| 
G||--4---4---2----4-4-2--|  Repeat This To Fade. 
D||--4---4---2----4-4-2--| 
A||--2---2---0----2-2-0--| 
E||----------------------|
Show more