• Song:

    Band On The Run

  • Artist:

    Wings

  • Album:

    Wings Over America (dis...

 																																													Band On The Run Tab									by Wings tabs |											tabbed by xthelonelywolfx | 									comments (2) 																																													1																							2																							3																							4																							5																																															  1 vote 								 																	 									print																																							 									send																																							 									report																																																																																									More versions:																									intros																				versions										video lessons																																																																									 																						 																																																																Ver 1																																																																																																																																	Ver 1																																																																		Ver 2																																																																																																																							Ver 1																																																																			 																																																																																																																																																						Recommended tabs																																																											If you like Band On The Run Tab by Wings you might also like these songs:																									Im Yours Tabby Jason Mraz																									The Climb Chordsby Miley Cyrus																									Love Story Chordsby Taylor Swift																																																																																																																																Band On The Run Lyricsby Wings Lyrics																						Band On The Run Tabat 911Tabs.com																																																						 																																																																																																																																																																																												 																																																																																																																												+ to speed up (numpad)															- to slow down (numpad)															Esc to stop																												Help																																																																																																																																																											Band On The Run tab by Wings, www.Ultimate-Guitar.Com																																													Listen to Band On The Run																																														Add to favourites																																																																																														tf_artist = "Wings";											tf_song = "Band On The Run";																																																												E|--10h12--10-------------2--------------------------------------------10\9--5--7--|
B|-------------10h12--10--2--10h12--10h12--10h12--10h12--10h12--10h12--------------|
G|------------------------2--------------------------------------------------------|
D|------------------------0--------------------------------------------------------|
A|---------------------------------------------------------------------------------|
E|---------------------------------------------------------------------------------|

E|--------------------------------------------|--|
B|--------------------------------------------|--|
G|--12h14--12h14--12h14--12h14--12h14--12h14--|--|
D|--------------------------------------------|--|
A|--------------------------------------------|--|
E|--------------------------------------------|--|

E|--10h12--10-------------2--------------------------------------------10\9--5--7--|
B|-------------10h12--10--2--10h12--10h12--10h12--10h12--10h12--10h12--------------|
G|------------------------2--------------------------------------------------------|
D|------------------------0--------------------------------------------------------|
A|---------------------------------------------------------------------------------|
E|---------------------------------------------------------------------------------|

E|--------------------------------------------|--|
B|--------------------------------------------|--|
G|--12h14--12h14--12h14--12h14--12h14--12h14--|--|
D|--------------------------------------------|--|
A|--------------------------------------------|--|
E|--------------------------------------------|--|

E|--15--14--12--12--10v--10--12--15v--15--14--12--12--10v--10--12--15v--14h15--14--|
B|---------------------------------------------------------------------------------|
G|---------------------------------------------------------------------------------|
D|---------------------------------------------------------------------------------|
A|---------------------------------------------------------------------------------|
E|---------------------------------------------------------------------------------|

E|--2--------------------------------------------0------------------------------|
B|--2--10h12--10h12--10h12--10h12--10h12--10h12--0------------------------------|
G|--2--------------------------------------------0------------------------------|
D|--0--------------------------------------------0--12h14--12h14--12h14--12h14--|
A|-----------------------------------------------2------------------------------|
E|-----------------------------------------------3------------------------------|

E|----------------|--|
B|----------------|--|
G|----------------|--|
D|--12h14--12h14--|--|
A|----------------|--|
E|----------------|--|

E|--2--------------------------------------------0------------------------------|
B|--2--10h12--10h12--10h12--10h12--10h12--10h12--0------------------------------|
G|--2--------------------------------------------0------------------------------|
D|--0--------------------------------------------0--12h14--12h14--12h14--12h14--|
A|-----------------------------------------------2------------------------------|
E|-----------------------------------------------3------------------------------|

E|----------------|--|
B|----------------|--|
G|----------------|--|
D|--12h14--12h14--|--|
A|----------------|--|
E|----------------|--|

E|--2--0--2--0--2--|-----------------------------------------------------------------|
B|--2--0--2--0--2--|-----5--5--5--4--4--4--2--2--2--------3--3--3--3--3--3-----------|
G|--2--0--2--0--2--|--------------------------------------------------------4--4--4--|
D|--0--0--0--0--0--|-----------------------------------0-----------------------------|
A|-----2-----2-----|--0-----------------------------3--------------------------------|
E|-----3-----3-----|-----------------------------------------------------------------|


E|--------------------------------------------------------------------------------------|
B|-----------------------------------3--3--3--3--3--3-----------------------------------|
G|--5--5--5--4--4--4--2--2--2--------------------------4--4--4--5--5--5--4--4--4--2--2--|
D|--------------------------------0-----------------------------------------------------|
A|-----------------------------3--------------------------------------------------------|
E|--------------------------------------------------------------------------------------|

E|--------------------------|--|
B|--------------------------|--|
G|--------------------------|--|
D|--5--5--5--4--4--4--2--2--|--|
A|--------------------------|--|
E|--------------------------|--|

E|--------------------------------------------------------------------------|
B|--------------------------------------------------------------------------|
G|--------------------------------------------------------------------------|
D|-----------------5--7--7--5-----------------5--7--7--5--------------------|
A|--------3--5--7-----5--5--3--------3--5--7-----5--5--3--------3--------3--|
E|--3--5-----------------------3--5-----------------------3--5-----3--5-----|

Then it goes into the whole chord part which I'm sorry I don't know.																																															Band On The Run Lyrics																																																	tf_artist = "Wings";											tf_song = "Band On The Run";																															         																																																																																																		

Show more