• Song:

    Mamunia

  • Artist:

    Wings

---------------------------------------------------------------------------
		Mamunia - Paul McCartney and Wings
---------------------------------------------------------------------------
Tabbed by: maguri
Tuning: Standard

Paul McCartney and Wings
Mamunia (1973)
(McCartney)
From: Band on the Run



INTRO
  A (x02220@1)              Amaj7 (x02120@1)          A6 (x04xxx@1)             Ae|5---------------|4---------------|2---------------|----------------| (x02220@1)B|----------2-----|----------2-----|----------2-----|5---------------|
G|------2---------|------2---------|------2---------|----------2-----|
D|----2-------2---|----2-------2---|----2-------2---|----2-------2---|
A|0-------0-------|0-------0-------|0-------0-------|0-------0-------|
E|----------------|----------------|----------------|----------------|
  Asus4 (x02230@1)          A (x02220@1)              E (022100@1)              Ae|----------------|----------------|----------------|----------------| (x02220@1)B|3---------3-----|2---------2-----|0---------0-----|----------------|
G|------2---------|------2---------|------1---------|2---------2-----|
D|----2-------2---|----2-------2---|----2-------2---|----2-------2---|
A|0-------0-------|0-------0-------|----------------|0-------0-------|
E|----------------|----------------|0-------0-------|----------------|

A (x02220@1)              Amaj7 (x02120@1)          A6 (x04xxx@1)             Ae|5---------------|4---------------|2---------------|----------2-----| (x02220@1)B|----------2-----|----------2-----|----------2-----|5-----------5---|
G|------2---------|------2---------|------2---------|------2---------|
D|----2-------2---|----2-------2---|----2-------2---|----2-------2---|
A|0-------0-------|0-------0-------|0-------0-------|0-------0-------|
E|----------------|----------------|----------------|----------------|
  Mamunia          Mamunia          Mamunia          Oh oh oh  
  Asus4 (x02230@1)          A (x02220@1)              E (022100@1)              Ae|----------------|----------------|----------------|----------------| (x02220@1)B|3---------3-----|2---------2-----|0---------0-----|----------------|
G|------2---------|------2---------|------1---------|2---------2-----|
D|----2-------2---|----2-------2---|----2-------2---|----2-------2---|
A|0-------0-------|0-------0-------|----------------|0-------0-------|
E|----------------|----------------|0-------0-------|----------------|
  Mamunia          Mamunia          Mamunia          Oh oh oh oh oh  
  
  E (022100@1)              Esus4 (022200@1)          E (022100@1)              E6e|----------------|----------------|----------------|----------------| (04xxxx@1)B|----------------|----------------|0---------0-----|2---------2-----|
G|1---------1-----|2---------2-----|------1---------|------1---------|
D|----2-------2---|----2-------2---|----2-------2---|----2-------2---|
A|----------------|----------------|----------------|----------------|
E|0-------0-------|0-------0-------|0-------0-------|0-------0-------|
  [Moog]

D/A (x00232@1)            Dadd9/A          D/A (x00232@1)            Ee|----------------|0---------0-----|2---------2-----|4---------4-----| (022100@1)B|3---------3-----|----------------|----------------|----------------|
G|------2---------|------2---------|------2---------|------4---------|
D|----0-------0---|----0-------0---|----0-------0---|----2-------2---|
A|0-------0-------|0-------0-------|0-------0-------|----------------|
E|----------------|----------------|----------------|0-------0-------
  [Moog]

A (x02220@1)              Amaj7 (x02120@1)          A6 (x04xxx@1)             Ae|5---------------|4---------------|2---------------|----------2-----| (x02220@1)B|----------2-----|----------2-----|----------2-----|5-----------5---|
G|------2---------|------2---------|------2---------|------2---------|
D|----2-------2---|----2-------2---|----2-------2---|----2-------2---|
A|0-------0-------|0-------0-------|0-------0-------|0-------0-------|
E|----------------|----------------|----------------|----------------|
  Mamunia          Mamunia          Mamunia          Oh oh oh  
  Asus4 (x02230@1)          A (x02220@1)              E (022100@1)              Ae|----------------|----------------|----------------|----------------| (x02220@1)B|3---------3-----|2---------2-----|0---------0-----|----------------|
G|------2---------|------2---------|------1---------|2---------2-----|
D|----2-------2---|----2-------2---|----2-------2---|----2-------2---|
A|0-------0-------|0-------0-------|----------------|0-------0-------|
E|----------------|----------------|0-------0-------|----------------|
  Mamunia          Mamunia          Mamunia          Oh oh oh oh oh

Ae|----------------|----------------| (x02220@1)B|------2---------|------2---------|
G|/2----------2---|(2)---------2---|
D|/2--------------|----------------|
A|0---------------|0---------------|
E|----------------|----------------|

---------------------------------------------------------------------------

CHORDS

e-B-G-D-A-E
A (x02220@1)         5-2-2-2-0-x
Amaj7       4-2-2-2-0-x
A6 (x04xxx@1)        2-2-2-2-0-x
D/F#        2-3-2-0-x-2
Dm(add9)/F  0-3-2-3-x-1
C/B         0-1-0-x-2-x

---------------------------------------------------------------------------

INTRO
| A| (x02220@1)Amaj7| (x02120@1)A6| (x04xxx@1)A| (x02220@1)D/A| (x00232@1)A| (x02220@1)E| (022100@1)A| (x02220@1)
A (x02220@1)     Amaj7 (x02120@1) A6 (x04xxx@1)    AMamunia (x02220@1)mamunia mamunia oh oh oh
Asus4 (x02230@1) A (x02220@1)     E (022100@1)      AMamunia (x02220@1)mamunia oh oh oh oh

| E | Esus4 | E | E6 | D/A | Dadd9/A | D | E | 
 [Moog]

A (x02220@1)     Amaj7 (x02120@1) A6 (x04xxx@1)    AMamunia (x02220@1)mamunia mamunia oh oh oh
Asus4 (x02230@1) A (x02220@1)     E (022100@1)      AMamunia (x02220@1)mamunia oh oh oh oh

C (x32010@1)            C/B (x2555x@1)   Am (x02210@1)     Am/G (302210@1)            
The rain comes falling from the sky,
   D/F# (200232@1)   Dm(add9)/F  C (x32010@1)       C/GTo (3x555x@1)fill the stream that fills the sea
C (x32010@1)              C/B (x32010@1)  
And that's where life 
  Am (x02210@1)    Am/G (302210@1)  D/F# (200232@1)  F (133211@1)        
began for you and me    A|----0-----------|
                        E|1-3-------1-3---|

C (x32010@1)       C/B (x2555x@1)   Am (x02210@1)    Am/G (302210@1)            
So the next time you see rain it ain't bad,
D/F# (200232@1)    Dm/F    C (x32010@1)       C/GDon't (3x555x@1)complain it rains for you,
    C (x32010@1)        C/B (x2555x@1)  Am (x02210@1) Am/G (302210@1)            
The next time you see L.A. rainclouds,
D/F# (200232@1)            F (133211@1)               C (x32010@1) C/BDon't (x2555x@1)complain it rains for you and me

A (x02220@1)     Amaj7 (x02120@1) A6 (x04xxx@1)    AMamunia (x02220@1)mamunia mamunia oh oh oh
Asus4 (x02230@1) A (x02220@1)     E (022100@1)      AMamunia (x02220@1)mamunia oh oh oh oh
A (x02220@1)     Amaj7 (x02120@1) A6 (x04xxx@1)    AMamunia (x02220@1)mamunia mamunia oh oh oh
Asus4 (x02230@1) A (x02220@1)     E (022100@1)      AMamunia (x02220@1)mamunia oh oh oh oh

C (x32010@1)           C/B (x2555x@1)  Am (x02210@1)        Am/G (302210@1)            
It might have been a bright blue day but
D/F# (200232@1)     Dm/F   C (x32010@1)       C/GRainclouds (3x555x@1)had to come this way
        C (x32010@1)      C/B (x2555x@1)Am (x02210@1)They're watering everything 
     Am/G (302210@1)   D/F# (200232@1)    F (133211@1)        
that they can see.    A|----0-----------|
                      E|1-3-------1-3---|

C (x32010@1)     C/B (x2555x@1)   Am (x02210@1)   Am/G (302210@1)            
A seed is waiting in the earth
    D/F# (200232@1)  Dm/F     C (x32010@1)      C/GFor (3x555x@1)rain to come and give him birth,
     C (x32010@1)    C/B (x2555x@1)  Am (x02210@1)     
It's all he really needs 
   Am/G (302210@1)  D/F# (200232@1)   Fto (133211@1)set him free   A|----0-----------|
                  E|1-3-------1-3---|
 
       C (x32010@1)       C/B (x2555x@1)   Am (x02210@1)    Am/G (302210@1)            
So the next time you see rain it ain't bad,
D/F# (200232@1)            F (133211@1)         
Don't complain it rains for you,
                A|----0-----------|
                E|1-3-------1-3---|

G (320003@1)               CSo (x32010@1)lay down your umbrellas
E (022100@1)                    AmStrip (x02210@1)off your plastic macs.
D (xx0232@1)           
You've never felt the rain my friend,
            Dm7                       GTill (320003@1)you've felt it running down your back

C (x32010@1)       C/B (x2555x@1)   Am (x02210@1)    Am/G (302210@1)            
So the next time you see rain it ain't bad,
D/F# (200232@1)    Dm/F    C (x32010@1)       C/GDon't (3x555x@1)complain it rains for you,
    C (x32010@1)        C/B (x2555x@1)  Am (x02210@1) Am/G (302210@1)            
The next time you see L.A. rainclouds,
D/F# (200232@1)            F (133211@1)               C (x32010@1) C/BDon't (x2555x@1)complain it rains for you and me

A (x02220@1)     Amaj7 (x02120@1) A6 (x04xxx@1)    AMamunia (x02220@1)mamunia mamunia oh oh oh
Asus4 (x02230@1) A (x02220@1)     E (022100@1)      AMamunia (x02220@1)mamunia oh oh oh oh
A (x02220@1)     Amaj7 (x02120@1) A6 (x04xxx@1)    AMamunia (x02220@1)mamunia mamunia oh oh oh
Asus4 (x02230@1) A (x02220@1)     E (022100@1)      AMamunia (x02220@1)mamunia oh oh oh oh

| E | Esus4 | E | E6 | D/A | Dadd9/A | D | E | 
 [Moog]

A (x02220@1)     Amaj7 (x02120@1) A6 (x04xxx@1)    AMamunia (x02220@1)mamunia mamunia oh oh oh
Asus4 (x02230@1) A (x02220@1)     E (022100@1)      AMamunia (x02220@1)mamunia oh oh oh oh


Show more