• Song:

    No Words

  • Artist:

    Wings

---------------------------------------------------------------------------
		No Words - Paul McCartney and Wings 
---------------------------------------------------------------------------
Tabbed by: maguri
Tuning: Standard

Paul McCartney and Wings
No Words (1973)
(Paul McCartney/Denny Laine)
From: "Band on the Run"

INTRO
  A (x02220@1)              A7/G (302020@1)           G6/B             F#e|--------------0-|--------------0-|0---------------|----------------| (244322@1)B|------2---2-23--|------2---2-23--|------0---0-023-|2---------------|
G|----2-----------|----0-----------|----0-----------|3-------------7-|
D|--2-------------|--2-------------|--2-------------|4---------------|
A|0---------------|----------------|(2)-------------|4---------------|
E|----------------|3---------------|----------------|2---------------|
  (arpeggio git)                                             (slide git)

Bm (x24432@1)                   E (022100@1)        A (x02220@1)              [A (VERSE)
e|----------------|----------------|----------------|[----------------|
B|7-7---7---------|7---------------|----------------|[----------------|
G|--------------7-|-/9---7-----9-7-|7-6-------------|[2---------------|
D|----------------|----------------|----------------|[2---------------|
A|----------------|----------------|--------------0-|[0---------------|
E|----------------|----------------|------------02-2|[----------------|
  (slide git)                                  (riff)

CHORUS
  E (022100@1)                               C#(7)            F#me|----------------|----------------|------10-9------|----------------| (244222@1)B|----------------|----9-10---10-9-|----9---------12|10-9-10---------|
G|----9-11--11--9-|--9-------------|--10------------|-------11-------|
D|--9-------------|9---------------|11--------------|----------------|
A|11--------------|----------------|----------------|----------------|
E|----------------|----------------|----------------|----------------|
  (riff)

-----------------------------------------------------------------------------

INTRO | A | A7/G | G6/B | F# | Bm | Bm E | A |
       (guitars: see above)

A (x02220@1)                    A7You (x02020@1)want to give your love away
    G6 (320000@1)          F#And (244322@1)end up giving nothing
    Bm (x24432@1)               E (022100@1)        Fdim (1201xx@1)   AI'm (x02220@1)not surprised that your black eyes are gazing.

A (x02220@1)                  A7You (x02020@1)say that love is everything
    G6 (320000@1)             F#And (244322@1)what we need the most of
  Bm (x24432@1)                  E (022100@1)      Fdim (1201xx@1)  AI (x02220@1)wish you knew, that's just how true my love was.

E (022100@1)          C#(7)   F#m[riff] (244222@1)(see above)
B7/9     A (x02220@1)    E (022100@1)          C#(7)   F#mNo (244222@1)words for my love [riff]

A (x02220@1)               A7Your (x02020@1)burning love,  sweet burning love
G6 (320000@1)           F# (244322@1) It's deep inside,
            Bm (x24432@1)                  
You mustn't hide, your burning Love
E (022100@1)     Fdim (1201xx@1)        A (x02220@1) Sweet burning love, your burning love.

A (x02220@1)                   A7You (x02020@1)want to turn your head away
    G6 (320000@1)               F#And (244322@1)someone's thinking of you
  Bm (x24432@1)                 E (022100@1)  Fdim (1201xx@1)AI (x02220@1)wish you'd see, it's only me, I love you.

E (022100@1)          C#(7)   F#m[riff] (244222@1)(see above)
B7/9     A (x02220@1)    E (022100@1)          C#(7)   F#mNo (244222@1)words for my love [riff]

CODA (repeat and fade)
|: Bm | E :|
[git solo]
Show more