• Song:

    Silly Love Songs

  • Artist:

    Wings

  • Album:

    Wings Over America (dis...

this is a new version from the 1984 album
"Give My Regards To Broad Street" in which he adds
more chords and solo to this song...I'll start from
"..it isn't silly" since is when the changes occur...
the rest of the chords you can get it from the other 
tabs, which I think are correct..


Dm7
 It isn't silly,     no, it isn't silly 
                        
Love isn't silly at all 

   Eb (x43121@3) Gm (355333@1) Abe|-------------------------------------------------| (xx1114@1)B|-------------------------------------------------|
G|------------------16-------16----16--------------|
D|--------------15^------15^----13----12~---------|
A|-------------------------------------------------|
E|-------------------------------------------------|

   Eb (x43121@3) Gm (355333@1)Abe|-----------------------------------------------------| (xx1114@1)B|--------------------------------11-------------------|
G|-------------------7-8-10---10^----10vp8-7-10-8~----|
D|-------------/8-10--------8--------------------------|
A|-----------------------------------------------------|
E|-----------------------------------------------------|

   Eb (x43121@3)name="chord_355333@1">Gm    Abe|-----------------15^-15^-15^v--13-11----13------------| (xx1114@1)B|-------------------------------------11----11-11~----|
G|------------------------------------------------------|
D|------------------------------------------------------|
A|------------------------------------------------------|
E|------------------------------------------------------|

       Eb (x43121@3)                         Gm (355333@1)               Ab (xx1114@1)
e|--------------11-13-13-13-11/13-13/15-15/16-16/18-18-18^~-------|
B|----------------------------------------------------------------|
G|----------------------------------------------------------------|
D|----------------------------------------------------------------|
A|----------------------------------------------------------------|
E|----------------------------------------------------------------|

                    C (x32010@1)            Em7         Fmaj7e|--18^v-16-------------20--19^-19-17-19-15~-------------| (1x3210@1)B|----------20^v--18^-------------------------------------|
G|--------------------------------------------------------|
D|--------------------------------------------------------|
A|--------------------------------------------------------|
E|--------------------------------------------------------|
                    I             love         you....



BASS SOLO: 
G|-----------------------------------------------------|
D|-----------------------------------------------------|
A|-----------------3-33--------------------------------|
E|-3-3-3-3-3-3----------5-5-3-333/5-0-0-0--------------|

G|--------------------------------------------------------|
D|--------------------------------------------------------|
A|-------------------------3--------3--------3--5p3-------|
E|-1-2-3-333-2-1--1-3-4-3h5--xx-3h5---xx-3h5--------5-----|


G|-------------------------------------|
D|-------------------------------------|
A|-3-33--------------------------------|
E|------5-5-3-333/5-0-0-0--------------|

G|--------------------------------------------------------|
D|--------------------------------------------------------|
A|-------------------------3--------3--------3--5p3-------|
E|-1-2-3-333-2-1--1-3-4-3h5--xx-3h5---xx-3h5--------5-----|

1st guitar:
e|----------------------------10----12^-12-----------------|
B|-------------------------13----13--------13~------------|
G|---------------10-12-12^---------------------------------|
D|---------10-12-------------------------------------------|
A|--/8--12-------------------------------------------------|
E|---------------------------------------------------------|

And the rest is basically the same.......

Show more