Tuning:Standard (EADGBe)

e|-------------------------------------------------------------------------|
B|-------------------------------------------------------------------------|
G|-------------------------------------------------------------------------|
D|----------------------5--7------7--5-------------------------------------|
A|-------5--5----7-8----------------------8--7--5--------------------------|
E|-------------------------------------------------------------------------|

e|-------------------------------------------------------------------------|
B|-------------------------------------------------------------------------|
G|-------------------------------------------------------------------------|
D|-----------5--3--2-------------------------------------------------------|
A|-----3-----------------3--3----5--5--------------------------------------|
E|-------------------------------------------------------------------------|

e|-------------------------------------------------------------------------|
B|-------------------------------------------------------------------------|
G|-------------------------------------------------------------------------|
D|----------------------5--7------7--5-------------------------------------|
A|-------5--5----7-8----------------------8--7--5--------------------------|
E|-------------------------------------------------------------------------|

e|-------------------------------------------------------------------------|
B|-------------------------------------------------------------------------|
G|-------------------------------------------------------------------------|
D|---------------7----5----3-----------------------------------------------|
A|------3-------------------------3---3-------5--5-------------------------|
E|-------------------------------------------------------------------------|





 first tab ,hopefully its right
Show more