CENTER OF THE SUN
WOLFGANG
Semenelin

tab by: Carl louie P. Giray

     PARA SA BANDA KONG "PHILOSOPO" FROM LAS PINAS MANILA MAY POSSIBILITY COVER NAMIN
ITO SA SUSUNOD NA GIG :)
     PLEASE LIKE OUR PAGE PHILOSOPO ON FACEBOOK IF NAG ENJOY KAYO SA TAB NA ITO SALAMAT!

Tuning: Half Step Down From Standard Tuning


INTRO
      G                           G                          
eb:-3-3-3-----------------|-----3-3-----------------|
Bb:-3-3-------3-----3-1h3-|-----3-------3-----3-1h3-|
Gb:-0-0-----0-----0-------|-----0-----0-----0-------|
Db:-0-----3-----2---------|---0-0---3-----2---------|
Ab:-2---------------------|---2-2-------------------|
Eb:-3---------------------|-3-3-3-------------------|
         G                          G
|-----3-3-----------------|-----3-3------------------|
|-----3-------3-----3-1h3-|-----3-------3-----3-1h3--|
|-----0-----0-----0-------|-----0-----0-----0--------|
|---0-0---3-----2---------|---0-0---3-----2----------|
|---2-2-------------------|---2-2--------------------|
|-3-3-3-------------------|-3-3-3--------------------|



VERSE
      G                           G                          
eb:-3-3-3-----------------|-----3-3-----------------|
Bb:-3-3-------3-----3-1h3-|-----3-------3-----3-1h3-|
Gb:-0-0-----0-----0-------|-----0-----0-----0-------|
Db:-0-----3-----2---------|---0-0---3-----2---------|
Ab:-2---------------------|---2-2-------------------|
Eb:-3---------------------|-3-3-3-------------------|
      G                          G
|-----3-3-----------------|-----3-3------------------|
|-----3-------3-----3-1h3-|-----3-------3-----3-1h3--|
|-----0-----0-----0-------|-----0-----0-----0--------|
|---0-0---3-----2---------|---0-0---3-----2----------|
|---2-2-------------------|---2-2--------------------|
|-3-3-3-------------------|-3-3-3--------------------|


REFRAIN
     Em                       Em                          C    D  Em/C   C
eb:-------------------------|--------------------------|-------------------------|
Bb:-------------------------|--------------------------|-----------------8-------|
Gb:-------7---9----9----9---|--------7---9----9----9---|--5----7----9----9-------|
Db:---7h9--9----9----9----9-|----7h9--9----9----9----9-|--5----9----10---10------|
Ab:-------------------------|--------------------------|--3---/5---/7------------|
Eb:-0-keep on ringing-------|-0-keep-on-ringing--------|-------------------------|


CHORUS

     G       F        G     F       G     F       
  A
eb:--3-3---------|--3-3----------|-3-3----------|
Bb:--3-3---------|--3-3----------|-3-3----------|
Gb:--0-0---------|--0-0----------|-0-0----------|
Db:--0-0-x-3-3-3-|--0-0-x-3-3-3--|-0-0-x-3-3-3--|
Ab:--2-2-x-3-3-3-|--2-2-x-3-3-3--|-2-2-x-3-3-3--|
Eb:--3-3-x-1-1-1-|--3-3-x-1-1-1--|-3-3-x-1-1-1--|
G     F          Em   F    G      Em    F 
|-3-3---------|---0---1----3--|----0---1---------------|
|-3-3---------|---0---1----3--|----0---1---2-----------|
|-0-0---------|---0---2----0--|----0---2---2-----------|
|-0-0-x-3-3-3-|---2---3----0--|----2---3---2-----------|
|-2-2-x-3-3-3-|---2---3----2--|----2---3---0--3-5-6-7\-|
|-3-3-x-1-1-1-|-0----1---3----|--0----1----------------|



INTERLUDE

eb:--------------------------------|------------------------------------|
Bb:--------------------------------|------------------------------------|
Gb:----9-----12-----11-----7---7/9-|----9-----12-----11-----12-----14\--|  2X
Db:----9-----12-----11-----7---7/9-|----9-----12-----11-----12-----14\--|
Ab:----7-----10-----9------5---5/7-|----7-----10-----9------10-----12\--|
Eb:-00----00-----00-----00---00----|-00----00-----00-----00-----00------|


Guitar 1
eb:--------------------------------|------------------------------------|
Bb:--------------------------------|------------------------------------|
Gb:----9-----12-----11-----7---7/9-|----9-----12-----11-----12-----14\--|  2X
Db:----9-----12-----11-----7---7/9-|----9-----12-----11-----12-----14\--|
Ab:----7-----10-----9------5---5/7-|----7-----10-----9------10-----12\--|
Eb:-00----00-----00-----00---00----|-00----00-----00-----00-----00------|
Guitar 2
eb:---------------------------------------------------------------------|
Bb:---------------------------------------------------------------------|
Gb:---/16..........................----7............................----|
Db:---------------------------------------------------------------------|
Ab:---/14.........................-----5............................----|
Eb:---------------------------------------------------------------------|
   Dot (.) means Repeating attitude



Guitar 1
eb:--------------------------------|------------------------------------|
Bb:--------------------------------|------------------------------------|
Gb:----9-----12-----11-----7---7/9-|----9-----12-----11-----12-----14\--|  2X
Db:----9-----12-----11-----7---7/9-|----9-----12-----11-----12-----14\--|
Ab:----7-----10-----9------5---5/7-|----7-----10-----9------10-----12\--|
Eb:-00----00-----00-----00---00----|-00----00-----00-----00-----00------|
Guitar 2
eb:---------------------------------------------------------------------|
Bb:---------------------------------------------------------------------|
Gb:--7/9...........14...................14.................19........\--|
Db:---------------------------------------------------------------------|
Ab:--5/7...........12...................16.................17........\--|
Eb:---------------------------------------------------------------------|
   Dot (.) means Repeating attitude




SOLO

Guitar 1
Bb:----------------------5----------------------------------|
Gb:-----5h7-7b8~~-r7p5---5----------------------------------|
Db:-5h7----------------7---7---12b14~~--------12h14h16p14p12|
Ab:-------------------------------------14h15---------------|
Eb:---------------------------------------------------------|
Guitar 2|

-----------------------------------------------|
-----------------------------------------------|
-----------------------------------------------|
-12h14h16p14p12-12h14h16p14p12-12h14h16p14p12--|
-----------------------------------------------|
-----------------------------------------------|


eb:---0------------------------1------------|
Bb:---1------------------------1------------|
Gb:---2------------------------2------------|
Db:---2------------------------3------------|
Ab:-0-0------------------------3------------|
Eb:----------------------------1------------|


Guitar 1
eb:-----------------------------------------------------|
Bb:-15b17~-15b17~-15b17-15b17-15b17-15b17r--------------|
Gb:-----------------------------------------------------|
Db:-----------------------------------------------------|
Ab:-----------------------------------------------------|
Eb:-----------------------------------------------------|
Guitar 2
eb:--3--------------------------------------------------|
Bb:--3--------------------------------------------------|
Gb:--5--------------------------------------------------|
Db:--5--------------------------------------------------|
Ab:--3--------------------------------------------------|
Eb:-----------------------------------------------------|



Guitar 1
eb:-------------------------------------------------------------------------------|
Bb:--15h17p15\13-15p13\12-13p12\10-12p10p8h10p8-----------------------------------|
Gb:---------------------------------------------12p10p9h10p9-10p9p7h9p7-7p5---5---|
Db:-------------------------------------------------------------------------7-----|
Ab:-------------------------------------------------------------------------------|
Eb:-------------------------------------------------------------------------------|
Guitar 2
eb:--3----------------------------------------------------------------------------|
Bb:--3----------------------------------------------------------------------------|
Gb:--4----------------------------------------------------------------------------|
Db:--5----------------------------------------------------------------------------|
Ab:--5----------------------------------------------------------------------------|
Eb:--3----------------------------------------------------------------------------|



Guitar 1
eb:--------8-----------------------------------------------------------------------|
Bb:--------------------------------------------------------------------------------|
Gb:--7b9[H]--7b9~~-5h7p5---7---5---------------------------------------------------|
Db:----------------------7---7---7\---/13-13-13-12h13p12\10-10h12p10\9-9h10p9-5\---|
Ab:--------------------------------------------------------------------------------|
Eb:--------------------------------------------------------------------------------|
Guitar 2
eb:--0---------------------------------1-------------------------------------------|
Bb:--1---------------------------------1-------------------------------------------|
Gb:--2---------------------------------2-------------------------------------------|
Db:--2---------------------------------3-------------------------------------------|
Ab:--0---------------------------------3-------------------------------------------|
Eb:------------------------------------1-------------------------------------------|


Guitar 1
eb:-----------------------------------------|
Bb:-----------------------------------------|
Gb:-----------------------------------------|
Db:--/7---5---2---3---2---------------------|
Ab:-----------------------5---3---2~--------|
Eb:-----------------------------------------|
guitar 2
eb:-----------------------------------------|
Bb:-----------------------------------------|
Gb:--2----------------------------4---------|
Db:--2---5---2---3---2------------4---------|
Ab:--0---5---2---3---2------------2---------|
Eb:------3---0---1---0----------------------|

Back To VErse & Refrain


LAST CHORUS

     G       F        G     F       G     F       
  F    G
eb:--3-3---------|--3-3----------|-3-3----------|
Bb:--3-3---------|--3-3----------|-3-3----------|
Gb:--0-0---------|--0-0----------|-0-0----------|
Db:--0-0-x-3-3-3-|--0-0-x-3-3-3--|-0-0-x-3-3-3--|
Ab:--2-2-x-3-3-3-|--2-2-x-3-3-3--|-2-2-x-3-3-3--|
Eb:--3-3-x-1-1-1-|--3-3-x-1-1-1--|-3-3-x-1-1-1--|
      G     F           Em    F     G       Em  
|-3-3----------|---0----1-----3--|----0----1----3--|
|-3-3----------|---0----1-----3--|----0----1----3--|
|-0-0----------|---0----2-----0--|----0----2----0--|
|-0-0-x-3-3-3--|---2----3-----0--|----2----3----0--|
|-2-2-x-3-3-3--|---2----3-----2--|----2----3----2--|
|-3-3-x-1-1-1--|-0-----1----3----|--0-----1----3---|

    Em    F     G      Em   F    G
eb:---0----1----3--|----0---1----3----------------|
Bb:---0----1----3--|----0---1----3----------------|
Gb:---0----2----0--|----0---2----0-feedback-------|
Db:---2----3----0--|----2---3----0----------------|
Ab:---2----3----2--|----2---3----2----------------|
Eb:-0-----1----3---|--0----1-----3----------------|


LEGEND

[H] - Pinch harm
... - repeating attitude
x - dead note
/ - slide up
\ - slide down
h - hammer on
p - pull
~ - vibrato
r - release

RATE NYO MGA SIR!!! MARAMING SALAMAT
Show more