• Song:

    Pilgrim

  • Artist:

    Wolfmother

hey guys this is my tab for pilgrim
  of wolfmother enjoy.

firstly he plays only single notes for the 1st 1/2 of
the intro.

|--------------------------------------|
|--------------------------------------|
|--------------------------------------| x2
|--------------------------------------|
|-5-7-7-7-7-7-77-77-5-7-7-7-7-7-77-77--|
|--------------------------------------|

the he plays power chords for the 2nd 1/2 of the intro.

|-------------------------------------|
|-------------------------------------|
|-------------------------------------|
|-7-9-9-9-9-9-99-99-9-9-9-9-9-9-99-99-| x2
|-7-7-7-7-7-7-77-77-7-7-7-7-7-7-77-77-|
|-------------------------------------|

verse:


|-------------------------------------|   |--------------------------------|
|-------------------------------------|   |--------------------------------|
|-------------------------------------|   |--------------------------------|
|-7-9-9-9-9-9-99-99-7-9-9-9-9-9-99-99-|x2 |--------------------------------|
|-5-7-7-7-7-7-77-77-5-7-7-7-7-7-77-77-|   |-5-7-7-7-7-7-77-77-5-7-7-7-0-8b-|
|-------------------------------------|   |-5-7-7-7-7-7-77-77-5-7-7-7-0-8b-|

|-------------------------------------|
|-------------------------------------|
|-------------------------------------|
|-------------------------------------|
|-5-7-7-7-7-7-77-77-5-7-7-7-7-7-77-77-|
|-------------------------------------|1

Then the pre-chorus

|-------------------------------------------------------------|
|-------------------------------------------------------------|
|-------------------------------------------------------------|x2
|-0h2-0--------------0--------0h2-0--------------0-4/5-2vvvvv-|
|-------0h2-0----0-2----------------0h2-0----0-2--------------|
|--------------5-------/5-2----------------5------------------|

chorus

|----------------------------------------------------------------------|
|----------------------------------------------------------------------|
|----------------------------------------------------------------------|
|-------------------0h2-0-------------0-4/5-2--------------------------|
|-7-7-7-7-7\5-5-5\2-------0h2-0---0-2---------7-7-7-7-7\5-5-5/9-9-9-9\-|
|-7-7-7-7-7\5-5-5\2-------------5-------------7-7-7-7-7\5-5-5/9-9-9-9\-|

|-----------|
|-----------|
|-----------|
|-----------|
|-8-8\7\5\2-|
|-8-8\7\5\2-|

then the intro chords again.

|-------------------------------------|
|-------------------------------------|
|-------------------------------------|
|-7-9-9-9-9-9-99-99-9-9-9-9-9-9-99-99-| x2
|-7-7-7-7-7-7-77-77-7-7-7-7-7-7-77-77-|
|-------------------------------------|

then the verse again
then the chorus then fill 1

|-----------------------------------------|
|-----------------------------------------|
|-----------------------------------------|
|---5-7-7brb---5------------------11-11\--|
|-7----------7---7-5-2p0------------------|
|------------------------5\7-9/11-11-11\--|

the bridge:

|-------------------------|
|-------------------------|
|-------------------------|
|-------------------------|x12
|-2-5/12\--7-5-2-7-5-2-5b-|
|-2-5/12\--7-5-2-7-5-2-5b-|

then the chorus
then there is a 4 bar rest
before the solo but i cant tab it
sorry.

but on the other hand this what
is played underneath the solo.

|-------------------------------------|   |--------------------------------|
|-------------------------------------|   |--------------------------------|
|-------------------------------------|   |--------------------------------|
|-7-9-9-9-9-9-99-99-7-9-9-9-9-9-99-99-|x2 |--------------------------------|
|-5-7-7-7-7-7-77-77-5-7-7-7-7-7-77-77-|   |--------------------------------|
|-------------------------------------|   |-5-7-7-7-7-7-77-77-5-7-7-7-7-08b|


|-------------------------------------|
|-------------------------------------|  so play all of that underneath the
|-------------------------------------|  solo x2
|-7-9-9-9-9-9-99-99-7-9-9-9-9-9-99-99-|
|-5-7-7-7-7-7-77-77-5-7-7-7-7-7-77-77-|
|-------------------------------------|

then the outro

|-------------------------------------------------------------------|
|-------------------------------------------------------------------|
|-------------------------------------------------------------------|
|-0h2-0-------------0------0h2-0-------------0-4/5brbrbrbrbrbrb-----|
|-------0h2-0---0-2--------------0h2-0---0-2---------------------2\-|
|-------------5-------/5-2-------------5-------------------------2\-|

so there you have it, if you think bits of it
are wrong fell free to send me the right way.
Show more