• Song:

    Pilgrim

  • Artist:

    Wolfmother

Intro/Verse
 (E)                                  (A)
|------------------|                |-------------------------------------|
|------------------|                |-------------------------------------|
|------------------|play this       |-------------------------------------|
|------------------|several times   |-5-7-7-7-7-7-7-7-5-7-7-7-7-7-7-7b8r7-|
|-5-7-7-7-7-7-7-7--|throughout      |-0---------------0-------------0-----|
|-0----------------|intro/verse     |-------------------------------------|
                                      variation halfway through verse
Interlude
  (N.C.)
|--------------------------------------------------|
|--------------------------------------------------|
|--------------------------------------------------|Play 2x
|----------------------------------------------5---|
|-5h7-5-------------5------5h7-5-------------5---7-|
|--------7-5--3-5-7---3-0---------7-5--3-5-7-------|

Chorus
 (A)             (G)             (N.C.)
|------------------------------------------------------------|
|------------------------------------------------------------|
|------------------------------------------------------------|
|-7-7-7-7-7-7-7-7-5-5-5-5-5-5-5-5---------------------5------|
|-7-7-7-7-7-7-7-7-5-5-5-5-5-5-5-5-5h7-5-------------5---7----|
|-5-5-5-5-5-5-5-5-3-3-3-3-3-3-3-3--------7-5--3-5-7----------|

|-----------------------------------------------------------------|
|-----------------------------------------------------------------|
|-----------------------------------------------------------------|
|-7-7-7-7-7-7-7-7-5-5-5-5-5-5-5-5-9-9-9-9-9-9-9-9-8-8-8-8-7-7-5-5-|
|-7-7-7-7-7-7-7-7-5-5-5-5-5-5-5-5-9-9-9-9-9-9-9-9-8-8-8-8-7-7-5-5-|
|-5-5-5-5-5-5-5-5-3-3-3-3-3-3-3-3-7-7-7-7-7-7-7-7-6-6-6-6-5-5-3-3-|

Back to verse riff!!

Bridge

|------------------------------|
|------------------------------|
|------------------------------|Play 12x
|-2----0-----------------------|
|-2----------------------------|
|-0-3/---5-3-0-5-3-0-3b4-------|

Play second half of chorus

Solo
The wah-wah makes it too hard to decipher, so heres some licks that I could pick out. 
scale is just E minor pentatonic.

e|------------*|    |-15p12----12-*|
B|----12h15----|    |-------15-12--|
G|-14b--------*|    |-------------*|

The Scale
|----------------------------------12-15-17-19-22-24-|
|---------------------------12-15--------------------|
|--------------------12-14---------------------------|
|-------------12-14----------------------------------|
|----10-12-14----------------------------------------|
|-12-------------------------------------------------|
Show more