sponsored links
                       
                       X-Y - Flying

Music & Words by J-L Ducroiset

tabbed by: J-L Ducroiset
email    : jl@xyrock.net
website  : www.xyrock.net
Facebook : XYofficial
iTunes link: http://itunes.apple.com/us/album/flying/id470376333
music video: http://youtu.be/ziHhmb5-nDY

Notation:

b (x24432@1)    : bend 
  h (x2444x@1)    : hammer-on
  p      : pull-off                                 
        : slide down               
  /      : slide up                 
  ~      : vibrato
  x      : mute note
  P.M.   : palm mute



Intro:  (both guitars playing the same riff)
                         
   Bbm (x13321@1)e|------------------|----------------------------|------------------|------------------|
B|------------------|----------------------------|------------------|------------------|
G|------------------|----------------------------|------------------|------------------| 
D|-8-8----8-8-------|-8-8----8-8-----------------|-8-8----8-8-------|-8-8----8-8-------|
A|-8-8----8-8-------|-8-8----8-8-----------------|-8-8----8-8-------|-8-8----8-8-------|
E|-6-6----6-6-------|-6-6----6-6----x-x--x-x-x-x-|-6-6----6-6-------|-6-6----6-6------|



Instrumental chorus: (x2)

Bbm (x13321@1)                                  Gbe|--------------------------------------|--------------------------------------| (244322@1)B|-9-9-9--------------------------------|-9-9-9--------------------------------|
G|-------8-8-8-10-10-10-----------------|-------8-8-8-10-10-10-----------------|
D|----------------------8-8-8-8-8-11-11-|----------------------8-8-8-8-8-11-11-|
A|--------------------------------------|--------------------------------------|
E|--------------------------------------|--------------------------------------|
 |
 | Bbm (x13321@1)                                  Gbe|--------------------------------------|--------------------------------------| (244322@1)B|--------------------------------------|--------------------------------------|
G|--------------------------------------|--------------------------------------|
D|--------------------------------------|--------------------------------------|
A|-8-8-8-8-8-8-8--8--8--8-8-8-8-8-8--8--|-4-4-4-4-4-4-4--4--4--4-4-4-4-4-4--4--|
E|-6-6-6-6-6-6-6--6--6--6-6-6-6-6-6--6--|-2-2-2-2-2-2-2--2--2--2-2-2-2-2-2--2--|

Ab (xx1114@1)                                   Ebm (xx4342@1)             Fe|--------------------------------------|-----------------------------------------| (133211@1)B|-9-9-9--------------------------------|-9-9-9-----------------------------------|
G|-------8-8-8-10-10-10-----------------|-------8-8-8-10-10-10--------------------|
D|----------------------8-8-8-8-8-11-11-|----------------------11-11-11-10-10-6-6-|
A|--------------------------------------|-----------------------------------------|
E|--------------------------------------|-----------------------------------------|
 |
 | Ab (xx1114@1)                                   Ebm (xx4342@1)             Fe|--------------------------------------|-----------------------------------------| (133211@1)B|--------------------------------------|-----------------------------------------|
G|--------------------------------------|-----------------------------------------|
D|--------------------------------------|-8-8-8-8-8-8-8--8------------------------|
A|-6-6-6-6-6-6-6--6--6--6-6-6-6-6-6--6--|-6-6-6-6-6-6-6--6--3--3--3--3--3--3--3-3-|
E|-4-4-4-4-4-4-4--4--4--4-4-4-4-4-4--4--|-------------------1--1--1--1--1--1--1-1-|
                                                           P.M.__________________



Verse 1: (guitars restart at the lyrics "The year after...")

Bbm (x13321@1)                                                              Abe|-6-----6-----6-----6-----6-------|-6----6-----6-----6-----6---6---|-4-----4-----4-----4----4---4-- (xx1114@1)B|---6-----6-----6-----6-----6---6-|---6----6-----6-----6-----6---6-|---4-----4-----4-----4----4---4
G|-----8-----8-----6-----6-----6---|-----8----8-----6-----6---------|-----5-----5-----5-----5-------
D|---------------------------------|--------------------------------|-------------------------------
A|---------------------------------|--------------------------------|-------------------------------
E|---------------------------------|--------------------------------|-------------------------------

Ebm (xx4342@1)           F (133211@1)                                        
e|-6-----6-----6---5-----5-----5---|
B|---7-----7-----7---6-----6-----6-|
G|-----8-----8---------5-----5-----|
D|---------------------------------|
A|---------------------------------|
E|---------------------------------|



Chorus: (x2) (both guitars playing the same riff)

Bbm (x13321@1)                             Gbe|---------------------------------|---------------------------------| (244322@1)B|---------------------------------|---------------------------------|
G|---------------------------------|---------------------------------|
D|---------------------------------|---------------------------------|
A|-8-8-8-8-8-8-8-8-8-8-8-8-8-8-8-8-|-4-4-4-4-4-4-4-4-4-4-4-4-4-4-4-4-|
E|-6-6-6-6-6-6-6-6-6-6-6-6-6-6-6-6-|-2-2-2-2-2-2-2-2-2-2-2-2-2-2-2-2-|

Ab (xx1114@1)                              Ebm (xx4342@1)           Fe|---------------------------------|---------------------------------| (133211@1)B|---------------------------------|---------------------------------|
G|---------------------------------|---------------------------------|
D|---------------------------------|-8-8-8-8-8-8-8-8-----------------|
A|-6-6-6-6-6-6-6-6-6-6-6-6-6-6-6-6-|-6-6-6-6-6-6-6-6-3-3-3-3-3-3-3-3-|
E|-4-4-4-4-4-4-4-4-4-4-4-4-4-4-4-4-|-----------------1-1-1-1-1-1-1-1-|
                                                    P.M.____________



Pre-Verse: (both guitars playing the same riff)

Bbm  
e|---------------------|-------------------|
B|---------------------|-------------------|
G|---------------------|-------------------| 
D|-8-8----8-8----------|-8-8----8-8--------|
A|-8-8----8-8----------|-8-8----8-8--------|
E|-6-6----6-6------x-x-|-6-6----6-6--------|



Verse 2: (same as "Verse 1", guitars restart at the lyrics "I travelled all...")

Chorus

Bridge: (both guitars playing the same riff)

Bbm 
e|--------------------6-6-|-----------------------------|
B|--------------------6-6-|-------------------------6-8-|
G|--------------------6-6-|-------------------------6-6-|
D|-8-8----8-8-------------|-8-8------8-8------------8-8-|
A|-8-8----8-8-----8-8-----|-8-8------8-8--------8-8-----|
E|-6-6----6-6-----6-6-----|-6-6--x-x-6-6----x-x-6-6-----|

Bbme|------------------------6-6-|-------------------------| (x13321@1)B|------------------------6-6-|-------------------------|
G|------------------------6-6-|-------------------------|
D|-8-8------8-8-----------8-8-|-8-8------8-8--------8---|
A|-8-8------8-8--------8-8----|-8-8------8-8--------8---|
E|-6-6--x-x-6-6----x-x-6-6----|-6-6--x-x-6-6----x-x-6--|

Gb (244322@1)               Db (x43121@1)               F (133211@1)              
e|------------------|------------------|-----------------|---------------------------------|
B|------------------|------------------|-----------------|---------------------------------|
G|------------------|-6----------------|-----------------|---------------------------------| 
D|-4----------------|-6----------------|-3---------------|---------------------------------|
A|-4----------------|-4----------------|-3---------------|-3-3-3-3-3-3-3-3-3-3-3-3-3-3-3-3-|
E|-2----------------|------------------|-1---------------|-1-1-1-1-1-1-1-1-1-1-1-1-1-1-1-1-|
                                                          P.M. ___________________________

Chorus

Outro: (both guitars playing the same riff)

Bbm 
e|--------------------6-6-|------------------------|-------------------6-6-|-----------------|
B|--------------------6-6-|--------------------6-8-|-------------------6-6-|-----------------|
G|--------------------6-6-|--------------------6-6-|-------------------6-6-|-----------------| 
D|-8-8----8-8-------------|-8-8----8-8---------8-8-|-8-8----8-8--------8-8-|-8-8----8-8------|
A|-8-8----8-8-----8-8-----|-8-8----8-8-----8-8-----|-8-8----8-8-----8-8----|-8-8----8-8------|
E|-6-6----6-6-----6-6-----|-6-6----6-6-----6-6-----|-6-6----6-6-----6-6----|-6-6----6-6------|
Show more
sponsored links
sponsored links