key of e.  listen to the song for the timing.

walts for zizi tab, from cowboy bebop
by yoko kanno
transcribed by me.

e|-------0--2s4------2--0-----0------0--0--2--4------|
B|-0--0--0------2s4--2-----2--0------0--------3------|
G|-------1-----------2--------1--1---1--------4------|
D|-------2-----------------------2---2---------------|
A|-------2---------------------------2---------------|
E|---------------------------------------------------|


|-5--4--2--------5s1--4--2-----------0--------------|
|-------2--2--2-------3-----4--2--1--0--2--2s4------|
|-------2--2--2-------4--------2--2--1--------------|
|----------2--2----------------2--2--2--------------|
|------------------------------------2--------------|
|---------------------------------------------------|


|----0---------------0--2s4------2--0-----0---------|
|-2--0--2--2s4--2----0------2s4--2-----2--0---------|
|-2--1----------2----1-----------2--------1--1------|
|-2--2----------2----2-----------------------2------|
|----2---------------2------------------------------|
|---------------------------------------------------|


|-0--0--2--4--5--4--2--------5s1--4--2-----2--0-----|
|-0--------3--------2--2--2-------3-----4--2--------|
|-1--------4--------2--2--2-------4--------2--------|
|-2--------------------2--2-------------------------|
|-2-------------------------------------------------|
|---------------------------------------------------|


|----0--------0--2--4--4--4-----(b9)-(b9)-(b9)-(b9)-(b9)-(b9)---|
|-2--2--2--3--------3-----6-------------------------|
|----2-----2--------4-----6--------(b9)-(b9)-(b9)-(b9)-(b9)---|
|----2-----0----------------------------------------|
|---------------------------------------------------|
|---------------------------------------------------|
			     here come the strings..

|-(b9)-(b9)-8--(b9)-(b9)-14--12--12--10--(b9)-----10--(b9)-7----|
|-----------------------------------10--------------|
|-(b9)-(b9)-8--(b9)-(b9)-14--13--13--11--(b9)-----11--(b9)-7----|
|-----------------------------------11--------------|
|---------------------------------------------------|
|---------------------------------------------------|


|-7--5--4--2--0-------------------------------------|
|---------------------------------------------------|
|-7--6--4--2--1-------------------------------------|
|---------------------------------------------------|
|---------------------------2-----------------------|
|------------------0--2--4-----0--0-----------------|
                             let ring..

|-7--7--7--7--7--7--7--6--7--7--7s(b9)-7--5--4--7-----|
|---------------------------------------------------|
|-7--7--7--7--7--7--7--6--7--7--7s(b9)-7--6--4--7-----|
|---------------------------------------------------|
|---------------------------------------------------|
|---------------------------------------------------|


|-7--5--2--0----(b9)-(b9)-(b9)-(b9)-(b9)-(b9)-(b9)-8--(b9)-(b9)-14----|
|---------------------------------------------------|
|-7--6--2--2----(b9)-(b9)-(b9)-(b9)-(b9)-(b9)-(b9)-8--(b9)-(b9)-14----|
|---------------------------------------------------|
|---------------------------------------------------|
|---------------------------------------------------|


|-12--12--10--(b9)-----10--(b9)--7--5--4--7--2----------|
|----------------10---------------------------------|
|-13--13--11--(b9)-----11--(b9)--7--6--4--7--2----------|
|----------------11---------------------------------|
|---------------------------------------------------|
|---------------------------------------------------|


|-7--7--7--7--7--7--7--6--7--7--11--(b9)-7--(b9)-4------|
|---------------------------------------------------|
|-7--7--7--7--7--7--7--6--7--7--10--(b9)-7--(b9)-4------|
|---------------------------------------------------|
|---------------------------------------------------|
|---------------------------------------------------|


|-7--5----------------------------------------------|
|---------------------------------------------------|
|-7--6----------------------------------------------|
|---------------------------------------------------|
|---------------------------------------------------|
|---------------------------------------------------|


|-------0--2s4------2--0-----0------0--0--2--4------|
|-0--0--0------2s4--2-----2--0------0--------3------|
|-------1-----------2--------1--1---1--------4------|
|-------2-----------------------2---2---------------|
|-------2---------------------------2---------------|
|---------------------------------------------------|


|-5--4--2--------5s1--4--2-----------0--------------|
|-------2--2--2-------3-----4--2--1--0--2--2s4------|
|-------2--2--2-------4--------2--2--1--------------|
|----------2--2----------------2--2--2--------------|
|------------------------------------2--------------|
|---------------------------------------------------|


|----0---------------0--2s4------2--0-----0---------|
|-2--0--2--2s4--2----0------2s4--2-----2--0---------|
|-2--1----------2----1-----------2--------1--1------|
|-2--2----------2----2-----------------------2------|
|----2---------------2------------------------------|
|---------------------------------------------------|


|-0--0--2--4--5--4--2--------5s1--4--2--(b9)-7--12----|
|-0--------3--------2--2--2-------3-----8-----10----|
|-1--------4--------2--2--2-------4-----(b9)----(b9)----|
|-2--------------------2--2-------------------------|
|-2-------------------------------------------------|
|---------------------------------------------------|


|-12--14--12----------------------------------------|
|-10--12--12----------------------------------------|
|-(b9)--11--(b9)----------------------------------------|
|---------------------------------------------------|
|---------------------------------------------------|
|---------------------------------------------------|
Show more