• Song:

    Guitarra

  • Artist:

    Yoscar Sarante

  • Album:

    ... No es Casualidad

Con el CAPO en el 4to Traste (Ritmo de Bachata tipo Bolero)
*Los tonos entre par?ntesis se tocan sin el CAPO si quieres*


INTRO:   A(C#) C#(F) F#m(A#m) D(F#) E(G#) D(F#) E(G#)  F#m(A#m) 


e-----------------------------------------11-11-9-
b--------------------------11----------13---------
g-6-6-6--8/10-10-10--10-13----13-10-13------------
d-------------------------------------------------
a-------------------------------------------------
e-------------------------------------------------

e-9P6-6-6------------------------
b---------9P-6-6-9--6-4----------
g-----------------------6-6/8^9--   X2
d--------------------------------
a--------------------------------
e--------------------------------



e--------------------6--
b----------11-------6---
g--6-8-10-----10\8-6----
d-----------------------
a-----------------------
e-----------------------

'Yoscar Sarante'

F#m(A#m)
Guitarra...
                    E(G#)
hoy necesito tu brillar
                    D(F#)             C#(F)
hoy necesito tu cantar para llegar a ella

F#m(A#m)
Guitarra...
                       E(G#)
si sabes de ella dile que
                        D(F#)                  C#(F)
desde aquel d?a que se fue toda esperanza se muri?

   D(F#)
T? sabes 
                  F#m(A#m)
de mis ansias mi dolor
                        G#m(Cm)    C#(F)
que he llorado por su amor
           F#m(A#m)    E(G#)-F#m(A#m)-G#m(Cm)
habla por m?...



************************************************
Coro:

   A(C#)
Guitarra...
          C#(F)                        F#m(A#m)
dile que vuelva a darme un poco mas de fe
         D(F#)                    E(G#)
dile que todo termino cuando se fue

   A(C#)
Guitarra...
          C#(F)                   F#m(A#m) 
dile que aprenda por amor a perdonar
         D(F#)                   E(G#)
dile que solo ya no puedo continuar

*************************************************


A(C#) C#(F) F#m(A#m) D(F#) E(G#) X2

e-4--13-12/13--13-13-13--16-14-14-13-13-11-11-8--8/9----
b-4--14-13/14--14-14-14--16-14-14-14-14-13-13-10-10/11--
g-------------------------------------------------------
d-------------------------------------------------------
a-------------------------------------------------------
e-------------------------------------------------------


e-9--9--9---13-11-11-9--9--6-9--8-11--
b-11-11-11--14-13-13-11-11-8-11-9-13--
g-------------------------------------
d-------------------------------------
a-------------------------------------
e-------------------------------------


e-4--13-12/13----13-13--16-14-14-13--11-8--8---9--
b-4--14-13/14--14-14--16-14-14-14--13-10-10--11---
g-------------------------------------------------
d-------------------------------------------------
a-------------------------------------------------
e-------------------------------------------------


e-9--9--9---13-11-11-9--9--6-9--8-11--
b-11-11-11--14-13-13-11-11-8-11-9-13--
g-------------------------------------
d-------------------------------------
a-------------------------------------
e-------------------------------------


F#m(A#m) D(F#) E(G#)  x4

e-6-9-6-6-6-9-6-9-....-8-11-8-8-8-11-8-11-....-
b----------------------------------------------
g----------------------------------------------
d----------------------------------------------  X4
a----------------------------------------------
e----------------------------------------------

F#m(A#m)

e-4h6
b----
g----
d----
a----
e----

F#m(A#m)
Guitarra...
                       E(G#)
si sabes de ella dile que
                    D(F#)                         C#(F)
que una noche me juro ser siempre m?a hasta el final

F#m(A#m)
Guitarra...
                       E(G#)
Si ha pensado en no volver
                        D(F#)                   C#(F)
que diga como puedo hacer para arrancarla de mi vida


   D(F#)
T? sabes 
                  F#m(A#m)
de mis ansias mi dolor
                        G#m(Cm)    C#(F)
que he llorado por su amor
           F#m(A#m)   E(G#)-F#m(A#m)-G#m(Cm)
habla por m?...


Coro

A(C#) C#(F) F#m(A#m) D(F#) E(G#) D(F#) E(G#)  
e--------------------------11-11-9-
b----------9-11-9-------13---------
g-6-8-10-10--------10-13------------
d--------------------------------------
a--------------------------------------
e--------------------------------------

e-9P6-6-6------------------------
b---------9P-6-6-9--6-4----------
g-----------------------6-6/8^9--   X2
d--------------------------------
a--------------------------------
e--------------------------------

e------------------
b----------11------
g--6-8-10-----10\8-
d------------------
a------------------
e------------------


Coro x3

F#m(A#m) D(F#) E(G#)  x4

e-6-9-6-6-6-9-6-9-....-8-11-8-8-8-11-8-11-....-
b----------------------------------------------
g----------------------------------------------
d----------------------------------------------  X4
a----------------------------------------------
e----------------------------------------------
Show more