Tabbed by: Martin Messner


Tuning: Standard
Shemisen:


[Intro]
(do with Hybrid Picking)
e|-4--4--4--4--4-4-2--2--2--2--2-2-0--0--0--0--0-0------------------|
B|-------------------------------------------------4--4--4--4--4-4--|
G|-1--1--1--1--1-1-1--1--1--1--1-1-1--1--1--1--1-1-1--1--1--1--1-1--|
D|------------------------------------------------------------------|
A|------------------------------------------------------------------|
E|------------------------------------------------------------------|

e|-4--4--4--4--4-4-2--2--2--2--2-2-0--0--0--0--0-0------------------|
B|-------------------------------------------------4--4--4--4--4-4--|
G|-1--1--1--1--1-1-1--1--1--1--1-1-1--1--1--1--1-1-1--1--1--1--1-1--|(the last part 3 times)
D|------------------------------------------------------------------|
A|------------------------------------------------------------------|
E|------------------------------------------------------------------|
                                                  |               |
                                                  \_______________/
                                                     last part ;)



[Main tune]

e|--4---2p0---0h2p0------------------------|
B|----------4-------4p2------0-0---0h4-0h2-|(2 times)
G|-------------------------1-----1---------|
D|-----------------------------------------|
A|-----------------------------------------|
E|-----------------------------------------|
                          |               |
                          \_______________/
                           repeat 2 times 
                          when you play this
                         tune the secound time
Show more