• Song:

    Fact-tastic

  • Artist:

    You Me At Six

Tabbed by:musicislifex
Tuning:

e|---------------------------------------------------------------------------|
B|---12------12------12---12------12-----------------------------------------| x2
G|------11------11-----------11-------11-------------------------------------|
D|---------------------------------------------------------------------------|
A|---------------------------------------------------------------------------|
E|---------------------------------------------------------------------------|

e|---14------14------14---14------14-----------------------------------------|
B|------12------12------------12------12-------------------------------------|
G|---------------------------------------------------------------------------|
D|---------------------------------------------------------------------------|
A|---------------------------------------------------------------------------|
E|---------------------------------------------------------------------------|

e|---14------14------14---14-------------------------------------------------|
B|------12------12------------12---11---12---14---12-------------------------|
G|---------------------------------------------------------------------------|
D|---------------------------------------------------------------------------|
A|---------------------------------------------------------------------------|
E|---------------------------------------------------------------------------|
Verse:
e|---------------------------------------------------------------------------|
B|---------------------------------------------------------------------------|x2
G|---------------4-4---------------------------------------------------------|
D|---2-2---2-2---4-4---4-4---------------------------------------------------|
A|---2-2---2-2---2-2---4-4---------------------------------------------------|
E|---0-0---0-0---------2-2---------------------------------------------------|

e|---------------------------------------------------------------------------|
B|---------------------------------------------------------------------------|x2
G|---------------4-4---------------------------------------------------------|
D|---6-6---6-6---4-4---4-4---------------------------------------------------|
A|---6-6---6-6---2-2---4-4---------------------------------------------------|
E|---4-4---4-4---------2-2---------------------------------------------------|

e|---------------------------------------------------------------------------|
B|---------------------------------------------------------------------------|
G|---------------------------------------------------------------------------|
D|---4-4-4-4-----------------------------------------------------------------|
A|---4-4-4-4-----------------------------------------------------------------|
E|---2-2-2-2-----------------------------------------------------------------|
     x x x x
Play the verse part three times apart from the palm muted part only play that the first time 


Chorus:

e|---------------------------------------------------------------------------|
B|---------------------------------------------------------------------------|x4
G|-------------------------4-4-4-4-------------------------------------------|
D|---2-2---4-4-4---6-6-6---4-4-4-4-------------------------------------------|
A|---2-2---4-4-4---6-6-6---2-2-2-2-------------------------------------------|
E|---0-0---2-2-2---4-4-4-----------------------------------------------------|

Verse 2:

e|---------------------------------------------------------------------------|
B|---------------------------------------------------------------------------| x2
G|---------------4-4---------------------------------------------------------|
D|---2-2---2-2---4-4---4-4---------------------------------------------------|
A|---2-2---2-2---2-2---4-4---------------------------------------------------|
E|---0-0---0-0---------2-2---------------------------------------------------|

e|---------------------------------------------------------------------------|
B|---------------------------------------------------------------------------|x2
G|---------------4-4---------------------------------------------------------|
D|---6-6---6-6---4-4---4-4---------------------------------------------------|
A|---6-6---6-6---2-2---4-4---------------------------------------------------|
E|---4-4---4-4---------2-2---------------------------------------------------|

Only play the verse twice this time.

Chorus:

e|---------------------------------------------------------------------------|
B|---------------------------------------------------------------------------|x4
G|-------------------------4-4-4-4-------------------------------------------|
D|---2-2---4-4-4---6-6-6---4-4-4-4-------------------------------------------|
A|---2-2---4-4-4---6-6-6---2-2-2-2-------------------------------------------|
E|---0-0---2-2-2---4-4-4-----------------------------------------------------|

Interlude (or whatever you want to call it)

e|---------------------------------------------------------------------------|
B|---------------------------------------------------------------------------|x 4
G|---4-4---------------------------------------------------------------------|
D|---4-4---4-4---6-6---4-4---2-2---4-4---2-2---4-4---------------------------|
A|---2-2---4-4---6-6---4-4---2-2---4-4---2-2---4-4---------------------------|
E|---------2-2---4-4---2-2---0-0---2-2---0-0---2-2---------------------------|

End the riff with 

e|-------|
B|-------|
G|---4---|
D|---4---|
A|---2---|
E|-------|

Chorus:

e|---------------------------------------------------------------------------|
B|---------------------------------------------------------------------------|x4
G|-------------------------4-4-4-4-------------------------------------------|
D|---2-2---4-4-4---6-6-6---4-4-4-4-------------------------------------------|
A|---2-2---4-4-4---6-6-6---2-2-2-2-------------------------------------------|
E|---0-0---2-2-2---4-4-4-----------------------------------------------------|

End riff:

e|---------------------------------------------------------------------------|
B|---12------12------12-12------14-12----------------------------------------|
G|------11------11---------11------------------------------------------------|
D|---------------------------------------------------------------------------|
A|---------------------------------------------------------------------------|
E|---------------------------------------------------------------------------|
Show more