• Song:

    Taste

  • Artist:

    You Me At Six

Tuning is Drop D

Verse - Kicks in after lead plays intro once. And its 2 10?s not 2 lots of ones and zeros.

e|-------------------------------------------------|
b|-------------------------------------------------|
g|-------------------------------------------------|
d|-1010xxxx--55xxxx--33xxxx------------------------|
a|-1010xxxx--55xxxx--33xxxx------------------------|
e|-1010xxxx--55xxxx--33xxxx------------------------|
repeat as many times as needed


Chorus ? they?re 10?s ok, not 1?s and zeros

e|-------------------------------------------------|
b|-------------------------------------------------|
g|-------------------------------------------------|
d|-10-33--3-3355---10-33--105533-------------------|
a|-10-33--3-3355---10-33--105533-------------------|
e|-10-33--3-3355---10-33--105533-------------------|

On 2nd time round, play just the first bit, then play below as a kind of chorus outro.

e|--------------|
b|--------------|
g|--------------|
d|-77777-33333--|
a|-77777-33333--|
e|-77777-33333--|


Second Verse ? all palm muted foe rhythm, lead does other stuff

e|-------------------------|
b|-------------------------|
g|-------------------------|
d|-10------5-----3---------|    Repeat 4 times
a|-10-x16--5-x8--3-x8------|
e|-10------5-----3---------|

Pre-chorus

e|-------------------------------------------------|
b|-------------------------------------------------|
g|-------------------------------------------------|    palm mute the 5?s
d|-10-77-33333333---5555555555555------------------|
a|-10-77-33333333---5555555555555------------------|
e|-10-77-33333333---5555555555555------------------|

Repeat chorus twice

Interlude

e|-------------------------------------------------|
b|-------------------------------------------------|
g|-------------------------------------------------|   then just strum it
d|-33--55--77--9(b9)-1010----------------------------|   as you need it
a|-33--55--77--9(b9)-1010--x2------------------------|
e|-33--55--77--9(b9)-1010----------------------------|


Interlude Cont.

e|-------------------------------------------------|
b|-------------------------------------------------|
g|-------------------------------------------------|
d|-10~-10~-10~---1010-55-3~------------------------|
a|-10~-10~-10~---1010-55-3~------------------------|
e|-10~-10~-10~---1010-55-3~------------------------|

Final Chorus ? they?re 12?s not ones and twos

e|-------------------------------------------------|
b|-------------------------------------------------|
g|-------------------------------------------------|
d|-12-55--5-5577---12-55--127755-------------------|
a|-12-55--5-5577---12-55--127755-------------------|
e|-12-55--5-5577---12-55--127755-------------------|

On 2nd time round just play first bit then play

e|--------------|
b|--------------|
g|--------------|
d|-9999(b9)33333--|
a|-9999(b9)33333--|
e|-9999(b9)33333--|


End on
e|-----|
b|-----|
g|-----|
d|-12~-|
a|-12~-|
e|-12~-|


That?s it for rhythm, if I figure out the lead I?ll post a tab for it, again, any 
on this much appreciated.
Show more