• Song:

    Taste Intro

  • Artist:

    You Me At Six

Tabbed by: GuitarGuy196


Tuning: Standard

e|----0--------------------------------------------------------------------|
B|------5-3-5-----------------0-------------------0------------------------|
G|-5-----------5---x2-------------5-4-5-------------5-4-5------------------|
D|---------------------------5----------5-------3---------5----------------|
A|-------------------------------------------------------------------------|
E|-------------------------------------------------------------------------|

e|-------------------------------------------------------------------------|
B|-------------------------------------------------------------------------|
G|--(b9)--7-7----(b9)--7-(b9)10-12----(b9)--7-7----(b9)(b9)(b9)(b9)(b9)(b9)(b9)(b9)----------------|
D|--x---x-x----x---x-x-x--x-----x---x-x----x-x-x-x-x-x-x-x-----------------|
A|--7---5-5----7---5-7?8--10----7---5-5----7-7-7-7-7-7-7-7-----------------|
E|-------------------------------------------------------------------------|


Just The Start Of It....


| /  slide up
| \  slide down
| h  hammer-on
| p  pull-off
| ~  vibrato
| +  harmonic
| x  Mute note
Show more