• Song:

    The Truth Is A Terrible Thing

  • Artist:

    You Me At Six

  • Album:

    Take Off Your Colours

The truth is a terrible thing

Tuning: drop D


INTRO
Guitar 1
|-----------------------------------------------------------------|
|-----------------------------------------------------------------|
|-----------------------------------------------------------------|
|----------4-----------7-------------------4------------7---------|
|-0----5-------7---4-------7-(b9)7--0----5-------7----4-------7-(b9)7-|
|-0--0---0---0---0---0---0--------0--0---0---0---0---0---0--------|
PM   -   -   -   -   -   -           -   -   -   -   -   -

|-----------------------------------------------------------------|
|-----------------------------------------------------------------|
|-----------------------------------------------------------------|
|-----------------------------------------------------------------|
|-5----5---4---5----4---5---4-5-4--4----5-5-5-5-5--5----5-5-5-5-5-|
|-5--5---5---5----5---5---5--------4--4------------5--5-----------|
PM   -   -   -    -   -   -



VERSE
Guitar 1
|-----------------------------------------------------------------|
|-----------------------------------------------------------------|
|-----------------------------------------------------------------|
|----------4-----------7-------------------4------------7---------|
|-0----5-------7---4-------7-(b9)7--0----5-------7----4-------7-(b9)7-|
|-0--0---0---0---0---0---0--------0--0---0---0---0---0---0--------|
PM   -   -   -   -   -   -           -   -   -   -   -   -

Guitar 2
|---------------------------------------------------------------|
|---------------------------------------------------------------|
|--141414141414141414141414141414-11111111111111(b9)(b9)(b9)111111----|
|---------------------------------------------------------------|
|--121212121212121212121212121212-(b9)(b9)(b9)(b9)(b9)(b9)(b9)7-7-7-(b9)(b9)(b9)----|
|---------------------------------------------------------------|
 

Guitar 1
|-----------------------------------------------------------------|
|-----------------------------------------------------------------|
|-----------------------------------------------------------------|
|-----------------------------------------------------------------|
|-5----5---4---5----4---5---4-5-4--4----5-5-5-5-5--5----5-5-5-5-5-|
|-5--5---5---5----5---5---5--------4--4------------5--5-----------|
PM   -   -   -    -   -   -

Guitar 2
|---------------------------------------------------------------|
|---------------------------------------------------------------|
|--141414141414141414141414161616-11111111111111(b9)(b9)(b9)111111----|
|---------------------------------------------------------------|
|--121212121212121212121212141414-(b9)(b9)(b9)(b9)(b9)(b9)(b9)7-7-7-(b9)(b9)(b9)----|
|---------------------------------------------------------------|


Guitar 1
|------------------------------------------------------------------------|
|------------------------------------------------------------------------|
|------------------------------------------------------------------------|
|-0--0--------------0-0---------------0--0--------------0-0--------------|
|-0--0--------------0-0---------------0--0--------------0-0--------------|
|-0--0--------------0-0---------------0--0--------------0-0--------------|

Guitar 2
|------------------------------------------------------------------------|
|------------------------------------------------------------------------|
|------11---11-(b9)----11---11---11-(b9)-----11---11-(b9)----11---11---11-(b9)---|
|------------------------------------------------------------------------|
|-------(b9)---(b9)7------(b9)---(b9)---(b9)7-------(b9)---(b9)7------(b9)---(b9)---(b9)7----|
|------------------------------------------------------------------------|


Guitar 1
|-------------------------------------------------------------------------|
|-------------------------------------------------------------------------|
|-------------------------------------------------------------------------|
|-0-0---------------0-0---------------5--5--5--5--5--5--5-7-7-7-7-7-7-7-7-|
|-0-0---------------0-0---------------5--5--5--5--5--5--5-7-7-7-7-7-7-7-7-|
|-0-0---------------0-0---------------5--5--5--5--5--5--5-7-7-7-7-7-7-7-7-|

Guitar 2
|--------------------------------------------------------------------------|
|--------------------------------------------------------------------------|
|------12---12-(b9)----12---12---12-(b9)--14-14-14-14-14-14-14-(b9)(b9)(b9)(b9)(b9)(b9)(b9)(b9)|
|--------------------------------------------------------------------------|
|------10---10-7-----10---10---10-7---12-12-12-12-12-12-12-7-7-7-7-7-7-7-7-|
|--------------------------------------------------------------------------|



VERSE
Guitar 1
|--------------------------------------------------------------------------|
|--------------------------------------7-------7-------7-------7-------7---|
|----------------------------------7-7---7-7-7---7-7-7---7-7-7---7-7-7---7-|
|---------------------------7-0--------------------------------------------|
|---------------------------7-0--------------------------------------------|
|---------------------------7-0--------------------------------------------|
PM                                 - -   - - -   - - -   - - -   - - -   -

Guitar 2
|--------------------------------------------------------------------------|
|------7-------7------7-------7-------7-------7-------7-------7--------7---|
|--7-7---7-7-7--7-7-7---7-7-7---7-7-7---7-7-7---7-7-7---7-7-7----7-7-7---7-|
|--------------------------------------------------------------------------|
|--------------------------------------------------------------------------|
|--------------------------------------------------------------------------|
PM - -   - - -  - - -   - - -   - - -   - - -   - - -   - - -    - - -   -


Guitar 1
|--------------------------------------------------------------------------|
|------7-------7-------7-------5-------5-------5-------5-------(b9)------(b9)--|
|--7-7---7-7-7---7-7-7---7-4-4---4-4-4---4-4-4---4-4-4---4-7-7---7-7-7---7-|
|--------------------------------------------------------------------------|
|--------------------------------------------------------------------------|
|--------------------------------------------------------------------------|
PM - -   - - -   - - -   - - -   - - -   - - -   - - -   - - -   - - -   -

Guitar 2
|--------------------------------------------------------------------------|
|------7-------7-------7-------5-------5-------5-------5-------(b9)------(b9)--|
|--7-7---7-7-7---7-7-7---7-4-4---4-4-4---4-4-4---4-4-4---4-7-7---7-7-7---7-|
|--------------------------------------------------------------------------|
|--------------------------------------------------------------------------|
|--------------------------------------------------------------------------|
PM - -   - - -   - - -   - - -   - - -   - - -   - - -   - - -   - - -   -


Guitar 1
|--------------------------------------------------------------------------|
|------(b9)------(b9)------7-------7-------7-------7-------7-------7-------7---|
|--7-7---7-7-7---7-7-7---7-7-7---7-7-7---7-7-7---7-7-7---7-7-7---7-7-7---7-|
|--------------------------------------------------------------------------|
|--------------------------------------------------------------------------|
|--------------------------------------------------------------------------|
PM - -   - - -   - - -   - - -   - - -   - - -   - - -   - - -   - - -   -

Guitar 2
|--------------------------------------------------------------------------|
|------(b9)------(b9)------7-------7-------7-------7-------7-------7-------7---|
|--7-7---7-7-7---7-7-7---7-7-7---7-7-7---7-7-7---7-7-7---7-7-7---7-7-7---7-|
|--------------------------------------------------------------------------|
|--------------------------------------------------------------------------|
|--------------------------------------------------------------------------|
PM - -   - - -   - - -   - - -   - - -   - - -   - - -   - - -   - - -   -


Guitar 1
|--------------------------------------------------------------------------|
|------7-------5-------5-------5-------5-------(b9)------(b9)------(b9)------(b9)--|
|--7-7---7-4-4---4-4-4---4-4-4---4-4-4---4-7-7---7-7-7---7-7-7---7-7-7---7-|
|--------------------------------------------------------------------------|
|--------------------------------------------------------------------------|
|--------------------------------------------------------------------------|
PM - -   - - -   - - -   - - -   - - -   - - -   - - -   - - -   - - -   -

Guitar 2
|--------------------------------------------------------------------------|
|------7-------5-------5-------5-------5-------(b9)------(b9)------(b9)------(b9)--|
|--7-7---7-4-4---4-4-4---4-4-4---4-4-4---4-7-7---7-7-7---7-7-7---7-7-7---7-|
|--------------------------------------------------------------------------|
|--------------------------------------------------------------------------|
|--------------------------------------------------------------------------|
PM - -   - - -   - - -   - - -   - - -   - - -   - - -   - - -   - - -   -

PRE CHORUS
Guitar 1
|---------------|
|---------------|
|---------------|
|--2---4---5----|
|--2---4---5----|
|--2---4---5----|

Guitar 2
|---------------|
|---------------|
|--(b9)--12--14---|
|---------------|
|--7---(b9)--12---|
|---------------|



CHORUS X2
Guitar 1
|-----------------------------------------------------------------|
|-----------------------------------------------------------------|
|-----------------------------------------------------------------|
|----------4-----------7-------------------4------------7---------|
|-0----5-------7---4-------7-(b9)7--0----5-------7----4-------7-(b9)7-|
|-0--0---0---0---0---0---0--------0--0---0---0---0---0---0--------|
PM   -   -   -   -   -   -           -   -   -   -   -   -

Guitar 2
|---------------------------------------------------------------|
|---------------------------------------------------------------|
|--141414141414141414141414141414-11111111111111(b9)(b9)(b9)111111----|
|---------------------------------------------------------------|
|--121212121212121212121212121212-(b9)(b9)(b9)(b9)(b9)(b9)(b9)7-7-7-(b9)(b9)(b9)----|
|---------------------------------------------------------------|
 

Guitar 1
|-----------------------------------------------------------------|
|-----------------------------------------------------------------|
|-----------------------------------------------------------------|
|-----------------------------------------------------------------|
|-5----5---4---5----4---5---4-5-4--4----5-5-5-5-5--5----5-5-5-5-5-|
|-5--5---5---5----5---5---5--------4--4------------5--5-----------|
PM   -   -   -    -   -   -

Guitar 2
|---------------------------------------------------------------|
|---------------------------------------------------------------|
|--141414141414141414141414161616-11111111111111(b9)(b9)(b9)111111----|
|---------------------------------------------------------------|
|--121212121212121212121212141414-(b9)(b9)(b9)(b9)(b9)(b9)(b9)7-7-7-(b9)(b9)(b9)----|
|---------------------------------------------------------------|



BASS BIT
Guitar 1
|---------------------------------------------------------------------|
|---------------------------------------------------------------------|
|---------------------------------------------------------------------|
|-----------------------7-5--0----------------------------------------|
|-----------------------7-5--0----------------------------------------|
|-----------------------7-5--0----------------------------------------|

Guitar 2
|---------------------------------------------------------------------|
|---------------------------------------------------------------------|
|---------------------------------------------------------------------|
|---------------------------------------------------------------------|
|---------------------------------------------------------------------|
|---------------------------------------------------------------------|



Guitar 1 x2
|---------------------------------------------------------------------|
|---------------------------------------------------------------------|
|---12?-11--(b9)11-(b9)(b9)--7------------------12?-11--(b9)11-(b9)(b9)--7--------|
|---------------------------------------------------------------------|
|---------------------------------------------------------------------|
|---------------------------------------------------------------------|

Guitar 2 x2
|---------------------------------------------------------------------|
|---------------------------------------------------------------------|
|---------------------------------------------------------------------|
|---10--(b9)--7-(b9)-7-7---5------------------10--(b9)--7-(b9)-7-7---5--------|
|---------------------------------------------------------------------|
|---------------------------------------------------------------------|



PRE CHORUS
Guitar 1
|---------------------------------------------------------------------|
|---------------------------------------------------------------------|
|---(b9)--11?-12--11------------------------(b9)--11?-12--11--------------|
|---------------------------------------------------------------------|
|---7---(b9)--10--(b9)------------------------7---(b9)--10--(b9)--------------|
|---------------------------------------------------------------------|

Guitar 2
|---------------------------------------------------------------------|
|---------------------------------------------------------------------|
|---------------------------------------------------------------------|
|---2--------------------------------------2--------------------------|
|---2--------------------------------------2--------------------------|
|---2--------------------------------------2--------------------------|


Guitar 1
|---------------------------------------------------------------------|
|---------------------------------------------------------------------|
|---(b9)--11?-12--11-------------------------14---14---14---------------|
|---------------------------------------------------------------------|
|---7---(b9)--10--(b9)-------------------------12---12---12---------------|
|---------------------------------------------------------------------|

Guitar 2
|---------------------------------------------------------------------|
|---------------------------------------------------------------------|
|---------------------------------------------------------------------|
|---2--------------------------------------7----7----7----------------|
|---2--------------------------------------7----7----7----------------|
|---2--------------------------------------7----7----7----------------|



CHORUS X2
Guitar 1
|-----------------------------------------------------------------|
|-----------------------------------------------------------------|
|-----------------------------------------------------------------|
|----------4-----------7-------------------4------------7---------|
|-0----5-------7---4-------7-(b9)7--0----5-------7----4-------7-(b9)7-|
|-0--0---0---0---0---0---0--------0--0---0---0---0---0---0--------|
PM   -   -   -   -   -   -           -   -   -   -   -   -

Guitar 2
|---------------------------------------------------------------|
|---------------------------------------------------------------|
|--141414141414141414141414141414-11111111111111(b9)(b9)(b9)111111----|
|---------------------------------------------------------------|
|--121212121212121212121212121212-(b9)(b9)(b9)(b9)(b9)(b9)(b9)7-7-7-(b9)(b9)(b9)----|
|---------------------------------------------------------------|
 

Guitar 1
|-----------------------------------------------------------------|
|-----------------------------------------------------------------|
|-----------------------------------------------------------------|
|-----------------------------------------------------------------|
|-5----5---4---5----4---5---4-5-4--4----5-5-5-5-5--5----5-5-5-5-5-|
|-5--5---5---5----5---5---5--------4--4------------5--5-----------|
PM   -   -   -    -   -   -

Guitar 2
|---------------------------------------------------------------|
|---------------------------------------------------------------|
|--141414141414141414141414161616-11111111111111(b9)(b9)(b9)111111----|
|---------------------------------------------------------------|
|--121212121212121212121212141414-(b9)(b9)(b9)(b9)(b9)(b9)(b9)7-7-7-(b9)(b9)(b9)----|
|---------------------------------------------------------------|


Guitar 1
|---------------------------------------------------------------|
|---------------------------------------------------------------|
|---------------------------------------------------------------|
|---------------------------------------------------------------|
|--------0-0-----------------0-0--------------------0-0---------|
|--------0-0-----------------0-0--------------------0-0---------|
PM       - -                 - -                    - -

Guitar 1
|------------------------------------------------------------------------|
|------------------------------------------------------------------------|
|------11---11-(b9)----11---11---11-(b9)-----11---11-(b9)----11---11---11-(b9)---|
|------------------------------------------------------------------------|
|-------(b9)---(b9)7------(b9)---(b9)---(b9)7-------(b9)---(b9)7------(b9)---(b9)---(b9)7----|
|------------------------------------------------------------------------|


Guitar 1
|---------------------------------------------------------------|
|---------------------------------------------------------------|
|---------------------------------------------------------------|
|---------------------------------------------------------------|
|--------0-0-----------------0-0--------------------0-0---------|
|--------0-0-----------------0-0--------------------0-0---------|
PM       - -                 - -                    - -

Guitar 2
|--------------------------------------------------------------------------|
|--------------------------------------------------------------------------|
|------12---12-(b9)----12---12---12-(b9)--14-14-14-14-14-14-14-(b9)(b9)(b9)(b9)(b9)(b9)(b9)(b9)|
|--------------------------------------------------------------------------|
|------10---10-7-----10---10---10-7---12-12-12-12-12-12-12-7-7-7-7-7-7-7-7-|
|--------------------------------------------------------------------------|


Guitar 1 & 2
|-------------------------------------|
|-------------------------------------|
|-------------------------------------|
|---5-5-5-5-5-5-5-5-7-7-7-7-7-7-7-7---|
|---5-5-5-5-5-5-5-5-7-7-7-7-7-7-7-7---|
|---5-5-5-5-5-5-5-5-7-7-7-7-7-7-7-7---|
PM  - - - - - - - - - - - - - - - -



OUTRO
Guitar 1 & 2 x6
|---------------------------------------------|
|---------------------------------------------|
|---------------------------------------------|
|--0-0-0----0-0-0----0-0---0-----0-0----------|
|--0-0-0----0-0-0----0-0---0-----0-0----------|
|--0-0-0----0-0-0----0-0---0-----0-0----------|
PM - - -    - - -    - -   -     - - 

Guitar 1 & 2
|--------------------|
|--------------------|
|--------------------|
|--0-0-0----0-0-0----|
|--0-0-0----0-0-0----|
|--0-0-0----0-0-0----|
PM - - -    - - -
Show more