• Song:

    This Is The First Thing

  • Artist:

    You Me At Six

  • Album:

    Sinners Never Sleep

tab by Clarfs

standard tuning:

---

Verse:

e|-------4---------2---------2---|
B|-------5---5-5-5-5---------5---|
G|-6-6-6---------------4-4-4-----|
D|-------------------------------|
A|-------------------------------|
E|-------------------------------| X 2

Chorus:

e|-----------------------------------------------------------------|
B|-----------------------------------------------------------------|
G|-6-6-6-6-6-6-6-6-2-2-2-2-2-2-2-2-----------------4-4-4-4-4-4-4-4-|
D|-6-6-6-6-6-6-6-6-2-2-2-2-2-2-2-2-2-2-2-2-2-2-2-2-4-4-4-4-4-4-4-4-|
A|-4-4-4-4-4-4-4-4-0-0-0-0-0-0-0-0-2-2-2-2-2-2-2-2-2-2-2-2-2-2-2-2-|
E|---------------------------------0-0-0-0-0-0-0-0-----------------|
Show more