• Song:

    Youve Made Your Bed

  • Artist:

    You Me At Six

Tabbed by: Alex
Tuning: Standard

Intro/ Verse (x4)
e|----------------------------------------------------------------------------------|
B|----------------------------------------------------------------------------------|
G|--------------(b9)--(b9)-----------(b9)-----(b9)------------------------------------------|
D|------7-----7---7-------7---------7-----------------------------------------------|
A|----(b9)---(b9)----------(b9)----(b9)-----------------------------------------------------|
D|----------------------------------------------------------------------------------|

e|----------------------------------------------------------------------------------|
B|----------------------------------------------------------------------------------|
G|-----------(b9)--(b9)------(b9)--(b9)-----------------------------------------------------|
D|-----7---7---7-----7-----7--------------------------------------------------------|
A|---7---7---------7---7------------------------------------------------------------|
D|----------------------------------------------------------------------------------|

e|----------------------------------------------------------------------------------|
B|----------------------------------------------------------------------------------|
G|-----------(b9)--(b9)------(b9)--(b9)-----------------------------------------------------|
D|-----7---7---7-----7-----7--------------------------------------------------------|
A|---5---5---------5---5------------------------------------------------------------|
D|----------------------------------------------------------------------------------|

e|----------------------------------------------------------------------------------|
B|----------------------------------------------------------------------------------|
G|-----------(b9)--(b9)------(b9)--(b9)-----------------------------------------------------|
D|-----7---7---7-----7-----7--------------------------------------------------------|
A|---7---7---------7---7------------------------------------------------------------|
D|----------------------------------------------------------------------------------|

e|---------------------------------------------------------------------------------|
B|---------------------------------------------------------------------------------|
G|---(b9)-----------------------------------(b9)--------------(b9)---(b9)------------------|
D|---7------------------------------------7---------------7----(b9)------------------|
A|---(b9)-----------------------------------7---------------5----7-------------------|
D|---------------------------------------------------------------------------------|
You've Made Your Bed                So sleep in it   (x2)

Prechorus:(x2)
e|-5-4---7-4---6-4----5-4---7-4---6-4--|
B|-----5-----5------------5-----5------|
G|-------------------------------------|
D|-------------------------------------|
A|-------------------------------------|
D|-------------------------------------|
p.m .........................................
Chorus
e|---------------------------------------------------------------------------------------|
B|---------------------------------------------------------------------------------------|
G|------7--------------7-----------------------------------------------------------------|
D|---7--7--4--2-----7--7--4--2-----------------------------------------------------------|
A|---7--5--4--2-----7--5--4--2-----------------------------------------------------------|
D|---7-----4--2-----7-----4--2-----------------------------------------------------------|
Second Verse ( Repeat Many Times)
e|----4-4h5h4h5------|
B|-55----------------|
G|-------------------|
D|-------------------|
A|-------------------|
D|-------------------|
  xx
e|---------------------------------------------------------------------------------|
B|---------------------------------------------------------------------------------|
G|---(b9)-----------------------------------(b9)--------------(b9)---(b9)------------------|
D|---7------------------------------------7---------------7----(b9)------------------|
A|---(b9)-----------------------------------7---------------5----7-------------------|
D|---------------------------------------------------------------------------------|
You've Made Your Bed                So sleep in it   (x2)
Pre Chorus
e|-5-4---7-4---6-4----5-4---7-4---6-4--|
B|-----5-----5------------5-----5------|
G|-------------------------------------|
D|-------------------------------------|
A|-------------------------------------|
D|-------------------------------------|
pm...................................................
Chorus
e|---------------------------------------------------------------------------------------|
B|---------------------------------------------------------------------------------------|
G|------7--------------7-----------------------------------------------------------------|
D|---7--7--4--2-----7--7--4--2-----------------------------------------------------------|
A|---7--5--4--2-----7--5--4--2-----------------------------------------------------------|
D|---7-----4--2-----7-----4--2-----------------------------------------------------------|
Bridge ( Repeat Many Times)
e|--4545-4545----4545-4545-12----|
B|-------------------------------|
G|-------------------------------|
D|-----------00------------------|
A|-----------00------------------|
E|-----------00------------------|
             xx
Bridge( Repeat A few Times)
e|----------------------|
B|----------------------|
G|---4-///---6-///---(b9)-|
D|----------------------|
A|---2-///---4-///---7--|
E|----------------------|

Chorus
e|---------------------------------------------------------------------------------------|
B|---------------------------------------------------------------------------------------|
G|------7--------------7-----------------------------------------------------------------|
D|---7--7--4--2-----7--7--4--2-----------------------------------------------------------|
A|---7--5--4--2-----7--5--4--2-----------------------------------------------------------|
D|---7-----4--2-----7-----4--2-----------------------------------------------------------|
Outro ( Each One x 12) (x2)
e|---------------------------------------------------------------------------------------|
B|---------------------------------------------------------------------------------------|
G|------7--------------7-----------------------------------------------------------------|
D|---7--7--4--2-----7--7--4--2-----------------------------------------------------------|
A|---7--5--4--2-----7--5--4--2-----------------------------------------------------------|
D|---7-----4--2-----7-----4--2-----------------------------------------------------------|
Ending:
e|-5-4---7-4---6-4----5-4---6-4---6-4--|
B|-----5-----5------------5-----5------|
G|-------------------------------------|
D|-------------------------------------|
A|-------------------------------------|
E|-------------------------------------|
(pm)..........................................

| /  slide up
| \  slide down
| h  hammer-on
| p  pull-off
| ~  vibrato
| +  harmonic
| x  Mute note
Show more