Intro
e|--------------------------------------------------|
B|--------------------------------------------------|
G|-(b9)-(b9)-(b9)(b9)(b9)(b9)-4-4-4-4-5-5-5-5-------------------|
D|-(b9)-(b9)-(b9)(b9)(b9)(b9)-4-4-4-4-5-5-5-5--5-5-5-5-5-5-5-5--|
A|-7--7--7-7-7-7--2-2-2-2-3-3-3-3--5-5-5-5-5-5-5-5--|
E|---------------------------------3-3-3-3-3-3-3-3--|

Intro End
e|-----------------------|
B|-----------------------|
G|-----------------------|
D|-7--(b9)-10--7--(b9)-10-(b9)-|
A|-5--7--8---5--7--8--7--|
E|-----------------------|
Show more