Intro/Verse

G|---------------------------------------------------------------------------|
D|---------------------------------------------------------------------------|
A|-242-2---------------------------------------------------------------------|
E|-------0-000-2-222222------------------------------------------------------|

G|---------------------------------------------------------------------------|
D|---------------------------------------------------------------------------|
A|-242-2---------------------------------------------------------------------|
E|-------0-000-2-222222-4----------------------------------------------------|


Pre Chorus

G|---------------------------------------------------------------------------|
D|---------------------------------------------------------------------------|
A|---------------------------------------------------------------------------|
E|-0-000-2-4-----------------------------------------------------------------|


Chorus

G|---------------------------------------------------------------------------|
D|---------------------------------------------------------------------------|
A|----------------------222-------222----------------------------------------|
E|-555-0-000-555-0-000-----4-444-----4-444-----------------------------------|

G|---------------------------------------------------------------------------|
D|---------------------------------------------------------------------------|
A|----------------------222-------222----------------------------------------|
E|-555-0-000-555-0-000-----4-444-----4-444-5-5-5-5---------------------------|
Show more