• Song:

    Aishiteru

  • Artist:

    Zivilia

ZIVILIA - Aishiteru (solo)



Key:

^  - bend
^^ - full bend
h  - hammer on
p  - pull off
r  - release bend
/  - slide down
\  - slide up
~  - vibrato
() - finger tap




                  A
Ku mohon kau kembali...


                        E                          F#m
e|----------------------------------12----10--9-10----------------|
B|-------10-12^-12^r-10-12-------------------------12^-10---------|
G|--9-11-------------------------/9----/9-------------------11----|
D|----------------------------------------------------------------|
A|----------------------------------------------------------------|
E|----------------------------------------------------------------|


                        E                                        A
e|---------------------------------------------------------------------|
B|-------10-12^-12^r-10-12-10/12-----10h12p10-9-10-12--------17^r-17---|
G|--9-11----------------------------------------------9------X---------|
D|-----------------------------------------------------------X---------|
A|---------------------------------------------------------------------|
E|---------------------------------------------------------------------|


                       E
e|--------14-17----14--17p14-----19p14-----17p14-----17p14---------|
B|--14-17--------------------17^-------17^-------17^-------17^-----|
G|-----------------------------------------------------------------|
D|-----------------------------------------------------------------|
A|-----------------------------------------------------------------|
E|-----------------------------------------------------------------|


                            F#m                                   E
e|--14-----14-----14-----------------14----------17-16--17--------------|
B|-----17^----17^----17^--14------------17-14--------------14--17-------|
G|---------------------------16^--------------16------------------13----|
D|----------------------------------------------------------------------|
A|----------------------------------------------------------------------|
E|----------------------------------------------------------------------|


                                             A
e|---------------------------------------------------------|
B|-----17----------15--------14----------------------------|
G|--14-----/13-14-----/13-14-----13-14-16-13-14~-----------|
D|---------------------------------------------------------|
A|---------------------------------------------------------|
E|---------------------------------------------------------|


A
Kimita touku...



Guitar tabs by rizalwahap
Show more