• Song:

    Happy Sickness of Life (Exulceration)

  • Artist:

    edaada27-d2c6-401e-90f6-3c8fd4ada0b2

Lymphatic Phlegm
Pathologist's Cadaveric Fleshfeast
Happy Sickness Of Life (Exulceration)

Copyright (c)  Bizarre Leprous Production 2002
Version 1.0 - 22.5.06

Transcribed By: Yaniv Dekel
Email:          lickywebster@yahoo.com


.  - palm mute           /  - slide up to
\  - slide down to       ~  - vibrato
h  - hammer on           b  - Bend
p  - pull off            Suffixes for bend
t  - tap                 f  - full bend    h - half bend
ph - pinched harmonic    q  - quarter bend t - tap bend
*  - see comment         ^  - Hold bend    r release bend
x  - Stuccatto           ~  - vibrato bend
,  - slight palm mute    () - ghost note, sustained note
"  - tremolo note         - Trill

Tuning E A D G B E

Intro
|---------------------------------|
|---------------------------------|
|---------------------------------|
|---------------------------------|
|---------------------------------|
|-0-0-0-0-0-0-0-0-0-0-0-0-0-0-0-0-|
  *

*Right guitar plays a 5 instead of the first 0

Riff A x4
|---------------------------------|
|---------------------------------|
|---------------------------------|
|---------------------------------|
|---------------------------------|
|-0-0-1-1-0-0-1-1-0-0-1-1-3-3-2-2-|

Riff B x4
|---------------------------------|
|---------------------------------|
|---------------------------------|
|---------------------------------|
|---------------------------------|
|-2-2-3-3-2-2-3-3-2-2-3-3-5-5-4-4-|

Riff A x4
Riff B x4

Riff C1 x2                         Riff C2 x3
|---------------------------------||-----------------|
|---------------------------------||-----------------|
|---------------------------------||-----------------|
|---------------------------------||-----------------|
|---------------------------------||-----------------|
|-0-0-0-0-3-3-3-3-2-2-2-2-1-1-1-1-||-0-0-3-3-2-2-1-1-|

Riff D x2
|---------------------------------|
|---------------------------------|
|---------------------------------|
|---------------------------------|
|---------------------------------|
|-0-0-0-0-1-1-1-1-0-0-0-0-3-3-2-2-|

Riff E x4
|---------------------------------|
|---------------------------------|
|---------------------------------|
|---------------------------------|
|---------------------------------|
|-2-2-2-2-5-5-5-5-4-4-4-4-3-3-3-3-|

Riff D  x2
Riff E  x4
Riff C1 x2
Riff C2 x3

End with
|------------------|
|------------------|
|------------------|
|------------------|
|-2-let ring-------|
|-0----------------|

END
Show more