Slania's Song
Eluveitie
Slania
Tabbed by: Jaden Sherrard

Tuning: Standard

Intro
e|----------------------------------------------------------------------|
B|-----4-4-3-3-4-4------4-4-3-3-----------4-4-3-3-4-4--6-6-4-4-3-3------|
G|-0-0--------------0-0---------3-3---1-1--------------------------3-3--|
D|----------------------------------------------------------------------|x2
A|----------------------------------------------------------------------|
E|----------------------------------------------------------------------|

Chorus
e|-----------------------------------------------------------------------|
B|-----------------------------------------------------------------------|
G|-5-5-5-5-5-5-5-5--------------------5-5-5-5-5-5-5-5--8-8-8-8-----------|
D|-5-5-5-5-5-5-5-5--6-6-6-6-8-8-8-8---5-5-5-5-5-5-5-5--8-8-8-8--5-5-5-5--|x2
A|-3-3-3-3-3-3-3-3--6-6-6-6-8-8-8-8---3-3-3-3-3-3-3-3--6-6-6-6--5-5-5-5--|
E|------------------4-4-4-4-6-6-6-6--------------------6-6-6-6--3-3-3-3--|

Verse
e|-----------------------------------------------------------------|
B|-----------------------------------------------------------------|
G|-----------------------------------------------------------------|
D|-5--5--5-5--5----------------------------------------------------|
A|-3--3--3-3--3---6-6-5-5-----2--2--2-2--2---6-6-----5--5--5-5--5--|
E|------------------------6-~-0--0--0-0--0-------4\3-3--3--3-3--3--|

-------------------------------------------------|
-------------------------------------------------|
-------------------------------------------------|
-------------------------------------------------| x2
-6-6-5-5-----6--6--6-6--6-/-8--8--8-8--8-/10\6---|
---------6-~-4--4--4-4--4-/-6--6--6-6--6-/8-\4---|

Chorus
e|-----------------------------------------------------------------------|
B|-----------------------------------------------------------------------|
G|-5-5-5-5-5-5-5-5--------------------5-5-5-5-5-5-5-5--8-8-8-8-----------|
D|-5-5-5-5-5-5-5-5--6-6-6-6-8-8-8-8---5-5-5-5-5-5-5-5--8-8-8-8--5-5-5-5--|x2
A|-3-3-3-3-3-3-3-3--6-6-6-6-8-8-8-8---3-3-3-3-3-3-3-3--6-6-6-6--5-5-5-5--|
E|------------------4-4-4-4-6-6-6-6--------------------6-6-6-6--3-3-3-3--|

Thats it. Have fun with it!
Show more