sponsored links
Intro:
      G
E | -3--------3--------2--------2--------2---------------- | 
B | ----3--------3--------3--------3--------3-----2------- | 
G | -------0--------0--------0--------0--------0---------- |    (2x)
D | ------------------------------------------------------ | 
A | ------------------------------------------------------ | 
E | -3---------------------------------------------------- | 

     Em9
E | -3--------3--------2--------2--------2---------------- | 
B | ----3--------3--------3--------3--------3-----2------- | 
G | -------0--------0--------0--------0--------0---------- |    (2x)
D | ------------------------------------------------------ | 
A | ------------------------------------------------------ | 
E | -0---------------------------------------------------- | 

    D
E | -3--------3--------2--------2--------2---------------- | 
B | ----3--------3--------3--------3--------3-----3------- | 
G | -------3--------3--------3--------3--------3---------- |   (2x)
D | -0---------------------------------------------------- | 
A | ------------------------------------------------------ | 
E | ------------------------------------------------------ | 

     C9
E | -3--------3--------2--------2--------2---------------- | 
B | ----3--------3--------3--------3--------3-----2------- |   (2x)
G | -------0--------0--------0--------0--------0---------- | 
D | ------------------------------------------------------ | 
A | -3---------------------------------------------------- | 
E | ------------------------------------------------------ | 

 G                    Em9
I was never good enough
               D
I listened to their lies
              C9
I crucified myself
              G
I always, but now I realize
         D
That I'm the only one
                  G
Who can mend my ways
             Em9
How did I come so far
                D             C9
My everlasting flame, my dying star
G                    Em9
I was my own worst enemy
                      G
I was blinded by my shame
               Em
A hopeless masquerade

Never ending
     C9
The guilty down inside
                           D          G
Was a blessing in disguise to mend my ways
             Em9
How did I come so far
                D               C9
My everlasting flame, my dying star
D                G
I can mend my ways

(Solo)

( G Em9 D C9 )

Em9        C9                  G
Now, I'm flying, hanging on the wind
              D
Following the night
     Em9
And ride
              C9
Leave gravity behind
               G
Following the light
                D
Finally I can breathe

G
I
               Em9
I bury all my doubts
                      C9
I've learned to live without
                    D
The fear of endless scars

In this star
               G
I can mend my ways
             Em9
How did I come so far
                D              C9
My everlasting flame, my dying star
               G
I can mend my ways
           Em9
How did I come so far
                D              C9
My everlasting flame, my dying star
              G   Em9 (dedilhado)
My dying star
Show more
sponsored links
sponsored links