• Song:

    Time Vs Time

  • Artist:

    Suffocate Faster

sponsored links
Dropped C Tuning
Palm Mute=.

D|----------------------|
A|----------------------|
F|----------------------|
C|----------------------|
G|-3-2-00000-0-0--------|
C|-3-2-00000-0-0--------| Intro-1x
       ..... . .

D|----------------------------------|
A|----------------------------------|
F|----------------------------------|
C|----------------------------------|
G|000-00-00-000-0000-00-------------|
C|000-00-00-000-0000-00-------------| 
Verse 1 Part 1- 2x (the second time don't play last 2 notes, go straight into verse part 2)
  ... .. .. ... .... ..
D|-----------------------------------------------|
A|-----------------------------------------------|
F|-----------------------------------------------|
C|-----------------------------------------------|
G|0000-2-0000-2-000000-1-3-2-1-3-|
C|0000-2-0000-2-000000-1-3-2-1-3-| Verse 1 Part 2- 1x
  ....   ....   ......
Repeat Verse Part 1- 2x
Repeat Verse Part 2- 4x

D|------------------------------------------------|
A|------------------------------------------------|
F|------------------------------------------------|
C|------------------------------------------------|
G|0000-000-2-1-2-1-2-1-2-1-222-1-0----------------|
C|0000-000-2-1-2-1-2-1-2-1-222-1-0----------------| Verse 2- 7x
  .... ...                       
D|----------------|
A|----------------|
F|----------------|
C|----------------|
G|0000-2-1-2------|
C|0000-2-1-2------| End On This
  ....

And Thats it.. it's a simple song that doesen't have tons of structure,  but it works
and sounds good. Tabbed By Mike Connolly
Show more
sponsored links
sponsored links