• Song:

    I Love Scream Party

  • Artist:

    Sug

sponsored links
Tuning: Drop D


This is my first tab so excuse me if there are any mistakes.
I'm dissapointed thay there aren't any other SuG tabs on this site. : (

Alright here's the intro/first verse:

E----------------------------------------------------------|
B----------------------------------------------------------|
G----------------------------------------------------------|
D----------------------------------------------------------|
A----------------------------------------------------------|
E-----2--0--2-----2---5-------2--0---2----2----(b9)----------|

This is sorta random, but here's a good way of remembering the names of the strings: 
Ate Dynamite Good Bye Eddy.


Anyway here's the 2nd Verse:

E----------------------------------------------------------|
A----------------------------------------------------------|
D----------------------------------------------------------|
G----------------------------------------------------------|
B----------------------------------------------------------|
E---2-----12------10----------2-------10-------0-----------|

CHORUS:
Sorry you're going to have to figure out the strumming yourself. : (

E-----------------------------------------------------------|
A-----------------------------------------------------------|
D-----------------------------------------------------------|
G-----(b9)----12-----7-----5----------------------------------|
B-----7-----10-----5-----3----------------------------------|
E-----------------------------------------------------------|
Show more
sponsored links
sponsored links