• Song:

    Stuck In America

  • Artist:

    Sugarcult

  • Album:

    Warped '01 Promo

sponsored links
Tirei ela na afina?ao normal (eBGDAE)....ae em baixo ta como eu tirei, normal, para tocar como o original eh soh afinar meio tom abaixo e fazer as mudan?as na tablatura!

-6---6---6--6-----------------------|
---6---6---6--6----v?rias vezes-----|
------------------------------------|
------------------------------------|
------------------------------------|
------------------------------------|
introdu?ao

-------------------------------|--------------------------|
-------------------------------|--------------------------|
-3-------8---5----3-----8--5-2x|-3--------8--8--8--8------|
-3---3---8---5----3--3--8--5---|-3--3--3--8--8--8--8-4x---|
-1---3---6---3----1--3--6--3---|-1--3--3--6--6--6--6------|
-----1---------------1---------|----1--1------------------|
"Today I changed..."

--------------------------------|
--------------------------------|
-3----------6-----10-/12--------|
-3--3--3----x------x---x-----2x-|
-1--3--3----5------8-/10--------|
----1--1------------------------|
2nd guitar 

Verso 1
---------------------------------|
---------------------------------|
-3-3-3-3-3-3-3-3-3---------------|
-3-3-3-3-3-3-3-3-3-3-3-3-3-3-3-3-|
-1-1-1-1-1-1-1-1-1-3-3-3-3-3-3-3-|
-------------------1-1-1-1-1-1-1-|
P.M..............................


                          Fim do Verso 1
----------------------------------------|
----------------------------------------|
-8-8-8-8-8-8-8-8-5-5-5-5-5-5-5-5--6/7---|
-8-8-8-8-8-8-8-8-5-5-5-5-5-5-5-5--x/x-x2|
-6-6-6-6-6-6-6-6-3-3-3-3-3-3-3-3--3/5---|
----------------------------------------|
P.M......................................

-------------------------------------|
-------------------------------------|
-3-3-3-3---------5-5-5-5-8-8-8-8-----|
-3-3-3-3-3-3-3-3-5-5-5-5-8-8-8-8--3x-|
-1-1-1-1-3-3-3-3-3-3-3-3-6-6-6-6-----|
---------1-1-1-1---------------------|

---------------------------------|
---------------------------------|
-3-3-3-3---------8-8-8-8-8-8-8-8-|
-3-3-3-3-3-3-3-3-8-8-8-8-8-8-8-8-|
-1-1-1-1-3-3-3-3-6-6-6-6-6-6-6-6-|
---------1-1-1-1-----------------|

"Everybody's talking bout..." "Running just to get awaaaaaay.."

Riff x2
-----------------------------------------------------------|
-----------------------------------------------------------|
-3-3-3-3-3-3-3-8-8-8-8-8-8-8-8-5-5-5-5-5-5-5-8-8-8-8-8-8-8-|
-3-3-3-3-3-3-3-8-8-8-8-8-8-8-8-5-5-5-5-5-5-5-8-8-8-8-8-8-8-|
-1-1-1-1-1-1-1-6-6-6-6-6-6-6-6-3-3-3-3-3-3-3-6-6-6-6-6-6-6-|
-----------------------------------------------------------|
Chorus "Stuck in America..."

-----------------------------------------------|
-----------------------------------------------|
-3-3-3-3-3-3-3-8---5-5-5-5-5-5-5--8-7-3-5------|
-3-3-3-3-3-3-3-8---5-5-5-5-5-5-5--x-x-x-x------|
-1-1-1-1-1-1-1-6---3-3-3-3-3-3-3--6-5-1-3------|
-----------------------------------------------|
Guitar 2 chorus

-1-----1-----1-----1----------|
---3-----1-----3-----1--------|
-----3-----3-----3-----3------|
---------------------------4x-|
------------------------------|
------------------------------|
Verso 2

Solo (Na Escala de Ab na afina?ao normal ou em A com a afina?ao meio tom abaixo)
----------------------------------------|
---------------------------------11--11-|
-8b10-8-7------8b10b8--10b12b10--10--10-|
----------8-8---------------------------|
----------------------------------------|
----------------------------------------|


--------------------------------------------------------|
--------------------------------------------------------|
-12b14--15-13----13h15-8-7--7-8-10--10-8-7--8b10--10b12-|
--------------15----------------------------------------|
--------------------------------------------------------|
--------------------------------------------------------|
Show more
sponsored links
sponsored links