• Song:

    Cant Get A Read On You

  • Artist:

    Tinted Windows

sponsored links
And btw, x is where you just hold your finger on top of the string and still pluck it,
don't hold it down actually ON the fretboard. And i don't know if this is the official
to tab it but \ for me would be "slide up" and / would be "slide down".

Intro
e|--------------------------------------------------------------------------|
B|--------------------------------------------------------------------------|
G|(b9)-----5------12------4------(b9)-------------------------------------------|
D|(b9)(x8)-5-(x8)-12-(x4)-4-(x4)-(b9)(x8)-(repeat for the rest of the intro)----|
A|7------3------10------2------7--------------------------------------------|
E|--------------------------------------------------------------------------|

Repeat the above for this verse. The above I'll call "Verse 1":
"Wanna get to know you but you're oh so distant, I can't get a read on you.
Got so much to show you but you're so resistant, I can't get a read on you."

Then (this part I will call "Verse 2"):
"Tell me whatcha like, tell me watcha don't. Tell me watcha might do, tell me watcha
Tell me watcha want, tell me watcha need. Tell me won't you please tell me cause I can't
a read on you."
e|--------------------------------------------------------------------------|
B|--------------------------------------------------------------------------|
G|(b9)(b9)-(b9)(b9)(b9)(b9)------------------------12------7-------12----------4--------|
D|(b9)(b9)-(b9)(b9)(b9)(b9)(repeat this rhythm for 12-and)-7,-then-12-(x2)-and-4-(x2)---|
A|7-7--7-7-7-7-------------------------10------5-------10----------2--------|
E|--------------------------------------------------------------------------|

Repeat for 7/9/9 and 10/12/12, then play 5/7/7 x8, and then 2/4/4 x8. You can
2/4/4 with 6/8/8, if you like. But 2/4/4 fits to the actual song.

Then for Chorus:

e|--------------------------------------------------------------------------|
B|--------------------------------------------------------------------------|
G|(b9)-----5------12------7---------------------------------------------------|
D|7-(x8)-5-(x8)-12-(x8)-7-(x8)-(repeat)-------------------------------------|
A|7------3------10------5---------------------------------------------------|
E|--------------------------------------------------------------------------|

Verse 1
Everything I say you got the same expression, I can't get a read on you.
Trying to find a way, you give me no direction, I can't get a read on you.
Verse 2
Tell me what you hate, tell me what you love.
Tell me what you fear, tell me what you're dreaming of.
Tell me what you got, tell me what you need.
Tell me won't you please tell me please cause I can't get a read on you.

Chorus

Bridge:
I could never quite figure this part out, but I know it involves

e|--------------------------------------------------------------------------|
B|--------------------------------------------------------------------------|
G|4--6-6-6-6-x-x-x-x--------------------------------------------------------|
D|4--6-6-6-6-x-x-x-x--------------------------------------------------------|
A|2--4-4-4-4-x-x-x-x--------------------------------------------------------|
E|--------------------------------------------------------------------------|

Solo (one of only two solos I've ever gotten right xD):

e|--------------------------------------------------------------------------|
B|--------------------------------------------------------------------------|
G|--------------------------------------------------------------------------|
D|14-13-14-13-14-13-14-13-14-14-17-14-12-12-12-13-13-14--14-13-14-13-14-13--|
A|--------------------------------------------------------------------------|
E|--------------------------------------------------------------------------|

e|--------------------------------------------------------------------------|
B|--------------------------------------------------------------------------|
G|--------------------------------------------------------------------------|
D|14-13-14-(b9)17-16-17-12-12-12-13-14-/------------------------------------|
E|--------------------------------------------------------------------------|

Verse 1
Verse 2

"Intro"

End on:

e|--------------------------------------------------------------------------|
B|--------------------------------------------------------------------------|
G|7------4------(b9)----/-----------------------------------------------------|
D|7-(x2)-4-(x2)-(b9)(x1)/-----------------------------------------------------|
A|5------2------7-----/-----------------------------------------------------|
E|--------------------------------------------------------------------------|
Show more
sponsored links
sponsored links