• Song:

    Ive Got To Go

  • Artist:

    Tiny Dancers

sponsored links
Tabbed by: Madhatterman

Tuning: Standard (eBGDAE)

Intro
e|--------------------------------------------------------------------------|
B|--------------------------------------------------------------------------|
G|---7---7---7---7---7---7---7---7---5---5---7---7---7---7---7---7---7---7--|
D|-5---5---5---5---5---5---5---5---5---5---5---5---7---7---7---7---7---7----|
A|--------------------------------------------------------------------------|
E|--------------------------------------------------------------------------|

e|--------------------------------------------------------------------------|
B|--------------------------------------------------------------------------|
G|---7---7---7---7---7---7---7---7---7---7----------------------------------|
D|-7---7---5---5---5---5---5---5---5---5------------------------------------|
A|--------------------------------------------------------------------------|
E|---[play this for the verses too]-----------------------------------------|

Chorus
e|--------------------------------------------------------------------------|
B|--------------------------------------------------------------------------|
G|---7---7---7---7---5---5---5---5---7---7---7---7---5---5---5---5---7---7--|
D|-5---5---5---5---5---5---5---5---5---5---5---5---5---5---5---5---5---5----|
A|--------------------------------------------------------------------------|
E|--------------------------------------------------------------------------|

e|--------------------------------------------------------------------------|
B|--------------------------------------------------------------------------|
G|---7---7---7---7---7---7---7---7---7---7----------------------------------|
D|-5---5---7---7---7---7---7---7---7---7------------------------------------|
A|--------------------------------------------------------------------------|
E|--------------------------------------------------------------------------|
During the little keyboard (i think) solo, i just play the verse, it goes well.
Show more
sponsored links
sponsored links