sponsored links
tabbed by: Shawn Klapproth

tuning: EADGBe


Guitar 1 Intro

----
----
----
-(b9)-
-11-
-(b9)- Repeat for a bit, then...

-------------------|
-------------------|
-----------(b9)------|
-(b9)---10---11---8--|
-11---12---(b9)---10-|
-(b9)---10--------8--|


Guitar 2 Intro
--------13-------------14-----12---------12----|
--13/14---14---14-14/15--15-11--11--11-13---13-|
-----------------------------------------------|
-----------------------------------------------|
-----------------------------------------------|
-----------------------------------------------|


----13-------------14------12--12------12--12--|
-14---14---14-14/15---15-11--11---11-13--13----|
-----------------------------------------------|
-----------------------------------------------|
-----------------------------------------------|
-----------------------------------------------|


---xx---xx---xx---xx---------xx-----|
---xx---xx---xx---xx---------xx-----|
---xx-8-xx---xx-7-xx---------xx-----|
-6-xx-8-xx-(b9)xx-7-xx-7-7-7-7-xx-2-2-|
-6-xx-6-xx-(b9)xx-5-xx-7-7-7-7-xx-2-2-|
-4-xx---xx-7-xx---xx-5-5-5-5-xx-0-0-|


---xx---xx---xx---xx---------xx-----|
---xx---xx---xx---xx---------xx-----|
---xx-8-xx---xx-7-xx---------xx-----|
-6-xx-8-xx-(b9)xx-7-xx-7-7-7-7-xx-8-(b9)|
-6-xx-6-xx-(b9)xx-5-xx-7-7-7-7-xx-8-(b9)|
-4-xx---xx-7-xx---xx-5-5-5-5-xx-6-7-|

-7--
-7--
-6--
-7--
-(b9)-
-7--

------------------------------------|
------------------------------------|
-13---11--6---(b9)--13---11--6---(b9)---|
-x----x---x---x---x----x---x---x----|
-11---(b9)--4---7---11---(b9)--4---7----|
------------------------------------|


------------------------------|
------------------------------|
-13---14---16---18---1(b9)--21--|
-x----x----x----x----x----x---|
-11---12---14---16---17---1(b9)-|
------------------------------|

--------13-------------14-----12---------12----|
--13/14---14---14-14/15--15-11--11--11-13---13-|
-----------------------------------------------|
-----------------------------------------------|
-----------------------------------------------|
-----------------------------------------------|


----13-------------14------12--12------12--12--|
-14---14---14-14/15---15-11--11---11-13--13----|
-----------------------------------------------|
-----------------------------------------------|
-----------------------------------------------|
-----------------------------------------------|

---xx---xx---xx---xx---------xx-----|
---xx---xx---xx---xx---------xx-----|
---xx-8-xx---xx-7-xx---------xx-----|
-6-xx-8-xx-(b9)xx-7-xx-7-7-7-7-xx-2-2-|
-6-xx-6-xx-(b9)xx-5-xx-7-7-7-7-xx-2-2-|
-4-xx---xx-7-xx---xx-5-5-5-5-xx-0-0-|


---xx---xx---xx---xx---------xx-----|
---xx---xx---xx---xx---------xx-----|
---xx-8-xx---xx-7-xx---------xx-----|
-6-xx-8-xx-(b9)xx-7-xx-7-7-7-7-xx-8-(b9)|
-6-xx-6-xx-(b9)xx-5-xx-7-7-7-7-xx-8-(b9)|
-4-xx---xx-7-xx---xx-5-5-5-5-xx-6-7-|


---xx---xx---xx---xx-R|--------------|
---xx---xx---xx---xx-E|--------------|
---xx-8-xx---xx-7-xx-P|--------------|
-6-xx-8-xx-(b9)xx-7-xx-E|--7-7-7-7-8-(b9)|
-6-xx-6-xx-(b9)xx-5-xx-A|--7-7-7-7-8-(b9)|
-4-xx---xx-7-xx---xx-T|--5-5-5-5-6-7-|
Show more
sponsored links
sponsored links