• Song:

    I'm Made Of Wax Larry What Are You Made Of

  • Artist:

    A Day To Remember

(afina??o D)

(11)1?s Not 11?s, there are not 11?s in the song.
(X) Mutes.
(.) Palm Mutes.
(^) Bend String.
(~) Hold Note.

(intro)(0:00)

E|----------------------------------------------------------------------|
B|----------------------------------------------------------------------|
G|------------------------------------3333333333333333------------------|
D|-55555555555555555-1111111111111111-3333333333333333-3333333333333333-|
A|-55555555555555555-1111111111111111-1111111111111111-3333333333333333-|
D|-55555555555555555-1111111111111111------------------3333333333333333-|

(verse 1) (0:11)
E|-----------------------------------------------------|
B|-----------------------------------------------------|
G|----------------------------------------55x55x-------|
D|-88x88x88x88x-77x77x77x77x-11x11x11x11x-55x55x-77x77-|
A|-55x55x55x55x-44x44x44x44x-11x11x11x11x-33x33x-77x77-|
D|-55x55x55x55x-44x44x44x44x-11x11x11x11x--------77x77-|

(pre chorus 1) (0:24)
E|--------------------------------------|
B|--------------------------------------|
G|--------------------------------------|
D|-555-8888-44444444-111111111-44444444-|
A|-555-8888-44444444-111111111-44444444-|
D|-555-8888-44444444-111111111-44444444-|

E|--------------------------------------|
B|--------------------------------------|
G|--------------------------------------|
D|-555-8888-44444444-111111111-44444444-|
A|-555-8888-44444444-111111111-44444444-|
D|-555-8888-44444444-111111111-44444444-|
/:-----------------------------........-|

(chorus 1) (0:36)
E|----------------------------------------------------------------------|
B|----------------------------------------------------------------------|
G|------------------------------------3333333333333333------------------|
D|-55555555555555555-1111111111111111-3333333333333333-3333333333333333-|
A|-55555555555555555-1111111111111111-1111111111111111-3333333333333333-|
D|-55555555555555555-1111111111111111------------------3333333333333333-|

(0:47)
E|-------------2^(x6)-|
B|--------------------|
G|-33x333x333x3-------|
D|-33x333x333x3-------|
A|-11x111x111x1-------|
D|--------------------|

(verse 2) (0:51)
E|------------------------------------------------------|
B|------------------------------------------------------|
G|---------------------------33x33x33x33x-55x55x--------|
D|-88x88x88x88x-77x77x77x77x-33x33x33x33x-55x55x-77x77x-|
A|-55x55x55x55x-44x44x44x44x-11x11x11x11x-33x33x-77x77x-|
D|-55x55x55x55x-44x44x44x44x---------------------77x77x-|

(pre chorus 2) (1:03)
E|--------------------------------------|
B|--------------------------------------|
G|--------------------------------------|
D|-555-8888-44444444-111111111-44444444-|
A|-555-8888-44444444-111111111-44444444-|
D|-555-8888-44444444-111111111-44444444-|

E|--------------------------------------|
B|--------------------------------------|
G|--------------------------------------|
D|-555-8888-44444444-111111111-44444444-|
A|-555-8888-44444444-111111111-44444444-|
D|-555-8888-44444444-111111111-44444444-|
/:-------------------.........-........-|

(chorus 2) (1:15)
E|----------------------------------------------------------------------|
B|----------------------------------------------------------------------|
G|------------------------------------3333333333333333------------------|
D|-55555555555555555-1111111111111111-3333333333333333-3333333333333333-| (x2)
A|-55555555555555555-1111111111111111-1111111111111111-3333333333333333-|
D|-55555555555555555-1111111111111111------------------3333333333333333-|

(bridge) (1:39)
E|--------------------------------------------------------------|
B|--------------------------------------------------------------|
G|-----(bass-line)-----(bass-line)------------------------------|
D|-555-------------555-------------5~-----555-1111-44-|  *Cough-|(x2)
A|-555-------------555-------------5~-----555-1111-44-----------|
D|-555-------------555-------------5~-----555-1111-44-----------|
/:----------------------------------------...-....-..-----------|

(breadown) (1:53)
E|---------------------------------------|
B|---------------------------------------|
G|---------------------------------------|
D|-555-8888-444444444-555-1111-444444444-| (x2)
A|-555-8888-444444444-555-1111-444444444-|
D|-555-8888-444444444-555-1111-444444444-|

E|-----------------------------------------|
B|-----------------------------------------|
G|-----------------------------------------|
D|-----------------------------------------|
A|-----------------------------------------|
D|-555-8888-4444-00000-555-1111-4444-00000-|

E|-------------------------------------|
B|-------------------------------------|
G|-------------------------------------|
D|-55~-88~-44~-00000-55~-11~-44~-00000-|
A|-55~-88~-44~-00000-55~-11~-44~-00000-|
D|-55~-88~-44~-00000-55~-11~-44~-00000-|

(chorus 3) (2:23)
E|---------------------------------------------------------------------|
B|---------------------------------------------------------------------|
G|-----------------------------------3333333333333333------------------|
D|-3-5-35-35-355-88-1111111111111111-3333333333333333-3333333333333333-|
A|------------------1111111111111111-1111111111111111-3333333333333333-|
D|------------------1111111111111111------------------3333333333333333-|
   ^^^^^^^^^^^^^^^^^^
  (I think this is the leads part but rhythm can do it as well)

E|----------------------------------------------------------------------|
B|----------------------------------------------------------------------|
G|------------------------------------3333333333333333------------------|
D|-55555555555555555-1111111111111111-3333333333333333-3333333333333333-|
A|-55555555555555555-1111111111111111-1111111111111111-3333333333333333-|
D|-55555555555555555-1111111111111111------------------3333333333333333-|

(outro)
E|--------------------|
B|--------------------|
G|--------------------|
D|-35-35-35-355-88--5-| (This parts a bit messy)
A|------------------5-|
D|------------------5-|

(intro)
(verse 1)
(pre chorus 1)
(chorus 1)
(verse 2)
(pre chorus 2)
(chorus 2)
(bridge)
(breadown)
(chorus 3)
(outro)
Show more