• Song:

    All Hope Is Gone

  • Artist:

    Alter Bridge

  • Album:

    AB III

-----------------------------------------------------------------------------
			     Alter Bridge - All Hope Is Gone
---------------------------------------------------------------------------

Tabbed By :Pete Kelly
e-mail: pfkelley9@yahoo.com

Tuning: high to low ( G, D, A, E, Bb )

Verse x 4:

G|---------------------------------------------------------------------------|
D|---------------------------------------------------------------------------|
A|---------------------------------------------------------------------------|
E|-----------222222h4------4444446666666666----------------------------------|
Bb-000000000---------33333---------------------------------------------------|

Chorus x 2:

G|---------------------------------------------------------------------------|
D|---------------------------------------------------------------------------|
A|---------------------------------------------------------------------------|
E|22222h3111111111-----------------------------------------------------------|
Bb----------------3333333222222----------------------------------------------|

"all hope is gone"

G|---------------------------------------------------------------------------|
D|---------------------------------------------------------------------------|
A|---------------------------------------------------------------------------|
E|2---1----------------------------------------------------------------------|
Bb------3--0-----------------------------------------------------------------|

Verse x 3:

G|---------------------------------------------------------------------------|
D|---------------------------------------------------------------------------|
A|---------------------------------------------------------------------------|
E|-----------222222h4------4444446666666666----------------------------------|
Bb-000000000---------33333----------------------(00000000000000000000000)----|

Chorus x 2:

G|---------------------------------------------------------------------------|
D|---------------------------------------------------------------------------|
A|---------------------------------------------------------------------------|
E|22222h3111111111-----------------------------------------------------------|
Bb----------------3333333222222----------------------------------------------|

"all hope is gone"

G|---------------------------------------------------------------------------|
D|---------------------------------------------------------------------------|
A|---------------------------------------------------------------------------|
E|2---1----------------------------------------------------------------------|
Bb------3--0-----------------------------------------------------------------|

Bridge:

G|-----------------------------------------------------------------------------|
D|-----------------------------------------------------------------------------|
A|-----11---22-----11--------------------22-------------11---------------------|
E|-----------------------------------------------------------------------------|
Bb-0320--320---0320---320-00-0320-00-0320---0320-00-0320-----------------------|

G|---------------------------------------------------------------------------|
D|---------------------------------------------------------------------------|
A|-----------22---11-44664422------------------------------------------------|
E|---------------------------------------------------------------------------|
Bb-320-00-320--320-----------------------------------------------------------|

Guitar Solo:

G|---------------------------------------------------------------------------|
D|---------------------------------------------------------------------------|
A|---------------------------------------------------------------------------|
E|-----------222222h4------4444446666666666-----------------2222-----444666--|
Bb-000000000---------33333------------------000000000(pause)----3333---------|

G|---------------------------------------------------------------------------|
D|---------------------------------------------------------------------------|
A|---------------------------------------------------------------------------|
E|9999999994444444444--------------------------------------------------------|
Bb-------------------00000000000000000000000---------------------------------|

Chorus x 3:

G|---------------------------------------------------------------------------|
D|---------------------------------------------------------------------------|
A|---------------------------------------------------------------------------|
E|22222h3111111111-----------------------------------------------------------|
Bb----------------3333333222222----------------------------------------------|

"all hope is gone"                   Ending x 3:

G|--------------------------|------------------------------------------------|
D|--------------------------|------------------------------------------------|
A|--------------------------|----------------22---1144664422-----------------|
E|2222222--1----------------|------------------------------------------------|
Bb-----------3--------------|------320-00-320--320----------------------(0)--|
Show more