• Song:

    Broken Wings

  • Artist:

    Alter Bridge

  • Album:

    One Day Remains

I really have no clue how to write these... to be honest i dont really know how to read
them... But here is my best shot. Let me know what i am doing wrong with the song and
with the tabs. thanks

K all i have so far is the intro, I cant figure out the tuning of the guitar. So all
i do i Cappo in first fret. Doesnt seem to work with rest of song though

e|------6------------------------------------|
B|------6------------------------------------|
G|------8-9-8--6-------6---5--------5/6---6--|
D|---------------8--------8-----6--6----5---5|
A|1~~~~--------------/8----------------------|
E|-------------------------------------------|


e|-----9----------------------------8------------------|
B|---------9-9/11----9---------------------------------|
G|-------8-------------11--10---------8--8/10---8------|
D|------------------------------------------------11-10|
A|9------------------------------8---------------------|
E|-----------------------------------------------------|


e|----9-8-6----------------------------------|
B|----------6--------------------------------|
G|----------------6-5-------6---6--8/10--6---|
D|-----------------8-----/8---8--------------|
A|1~~----------/8----------------------------|
E|-------------------------------------------|


e|-----9----------------------------8-----------|
B|---------9-9/11----9--------------------------|
G|-------8-------------11--10---------8--8/10---|
D|----------------------------------------------|
A|9------------------------------8--------------|
E|----------------------------------------------|


brent (know_i_dont@hotmail.com <-- msn)

 /  slide up
 \  slide down
 h  hammer-on
 p  pull-off
 ~  vibrato
 +  harmonic
 x  Mute note
Show more