• Song:

    Ghost Of Days Gone By

  • Artist:

    Alter Bridge

  • Album:

    AB III

-----------------------------------------------------------------------------
			     GHOST OF DAYS GONE BY - Alter Bridge
-----------------------------------------------------------------------------

Tabbed By : Pete Kelley
e-mail: pfkelley9@yahoo.com

Tuning:high to low ( G, D, A, E, Bb )

Intro (32sec):
G|----------------------------------------------------------------------------|
D|----------------------------------------------------------------------------|
A|----------------------------------------------------------------------------|
E|---------9-6666666666666666666644444444444444444422222222222222-------------|
Bb-33333333------------------------------------------------------333333333333-|

Chorus
G|----------------------------------------------------------------|
D|----------------------------------------------------------------|
A|----------------------------------------------------------------|
E|2222222222-6---6---------6-6666h8p604444444444222222222222------|
Bb----------5-555-555500000---------------------------------5-----|

Verse x 3:
G|-------------------------------------------------------------------|
D|-------------------------------------------------------------------|
A|-------------------------------------------------------------------|
E|9-6666666666666666666644444444444444444422222222222222-------------|
Bb------------------------------------------------------333333333333-|

Chorus
G|-------------------------------------------------------------|
D|-------------------------------------------------------------|
A|-------------6-----------------------------------------------|
E|22222222h4-6---6---------6-6666h8p6044444444442222222222222--|
Bb----------5-5-5-555500000-0-00-----------------------------5-|

Bridge x 4:
G|----------------------|
D|----------------------|
A|----------------------|
E|----------------------|
Bb-10\7777777066667\333-

Guitar Solo/Chorus x 3:
G|-------------------------------------------------|
D|-------------------------------------------------|
A|-------------6-----------------------------------|
E|22222222h4-6------6------6-6666h8p604444444444---|
Bb----------5-5-5555-500000-0-00-------------------|

Ending
G|----------------------|
D|----------------------|
A|----------------------|
E|----------------------|
Bb-10\7777777066667\333-
Show more