• Song:

    Audrey Start The Revolution

  • Artist:

    Anberlin

INTRO GUITAR1:
e|START|-----------4TIMES---------------|
B|-----|--------------------------------|
G|-----|-5v-----2v-----5v-----2---------|
D|-XXXX|----2-3----3-2----2-3---5-3-2---|
A|-XXXX|--------------------------------|
D|-XXXX|--------------------------------|
INTRO GUITAR2:
e|-----------------------------------------------------------------------|
B|-----------------------------------------------------------------------|
G|-----------------------------------------------------------------------|
D|-XXXX-0000000000000000222222222222222233333333333333338888888888888888-|
A|-XXXX-0000000000000000222222222222222233333333333333338888888888888888-|
D|-XXXX-0000000000000000222222222222222233333333333333338888888888888888-|

INTO-VERSE:
e|-----5-5-----5-5----55--|
B|-----6-6-----6-6----66--|
G|-----6-6-----6-6----66--|
D|-----7-7-----7-7----77--|
A|------------------------|
D|--00------00-----00-----|
VERSE: 2X m=palm-muted
e|--m-m-m-m-m-m-m-m--mm-mm-mm-mm--m-m-m-m-m-m-m-m--m-m-m-m-m-m-m-------|
B|---------------------------------------------------------------------|
G|--9---9---9---9---10-10-10-10--14--14--14--14---12--12--12--12-1212--|
D|----7---7---7---7---8--8--8--8---12--12--12--12---10--10--10---1010--|
A|---------------------------------------------------------------------|
D|---------------------------------------------------------------------|
INTO-VERSE2:
e|-----5-5-----5-5----55--|
B|-----6-6-----6-6----66--|
G|-----6-6-----6-6----66--|
D|-----7-7-----7-7----77--|
A|------------------------|
D|--00------00-----00-----|
VERSE2: 2X m=palm-muted
e|--m-m-m-m-m-m-m-m--mm-mm-mm-mm--m-m-m-m-m-m-m-m--m-m-m-m-m-m-m-------|
B|---------------------------------------------------------------------|
G|--9---9---9---9---10-10-10-10--14--14--14--14---12--12--12--12-1212--|
D|----7---7---7---7---8--8--8--8---12--12--12--12---10--10--10---1010--|
A|---------------------------------------------------------------------|
D|---------------------------------------------------------------------|
END-VERSE:
e|-----5-5-----5-5----55--|
B|-----6-6-----6-6----66--|
G|-----6-6-----6-6----66--|
D|-----7-7-----7-7----77--|
A|------------------------|
D|--00------00-----00-----|

PRE-CHORUS: m=palm-muted
e|--------------------|
B|--------------------|
G|---------------555--|
D|--222233333333-555--|
A|--000011113333-333--|
D|--mmmmmmmmmmmm------|
CHORUS: 2X
e|-----------------------------------------------------------------------|
B|-----------------------------------------------------------------------|
G|------------------5555555533333333101010\9/10777777775555555533333333--|
D|--33333333222222225555555533333333101010\9/10777777775555555533333333--|
A|--33333333222222223333333311111111-8-8-8\7/-8555555553333333311111111--|
D|--3333333322222222-----------------------------------------------------|

INTO-VERSE:
e|-----5-5-----5-5----55--|
B|-----6-6-----6-6----66--|
G|-----6-6-----6-6----66--|
D|-----7-7-----7-7----77--|
A|------------------------|
D|--00------00-----00-----|
VERSE: 2X m=palm-muted
e|--m-m-m-m-m-m-m-m--mm-mm-mm-mm--m-m-m-m-m-m-m-m--m-m-m-m-m-m-m-------|
B|---------------------------------------------------------------------|
G|--9---9---9---9---10-10-10-10--14--14--14--14---12--12--12--12-1212--|
D|----7---7---7---7---8--8--8--8---12--12--12--12---10--10--10---1010--|
A|---------------------------------------------------------------------|
D|---------------------------------------------------------------------|
INTO-VERSE2:
e|-----5-5-----5-5----55--|
B|-----6-6-----6-6----66--|
G|-----6-6-----6-6----66--|
D|-----7-7-----7-7----77--|
A|------------------------|
D|--00------00-----00-----|
VERSE2: 2X m=palm-muted
e|--m-m-m-m-m-m-m-m--mm-mm-mm-mm--m-m-m-m-m-m-m-m--m-m-m-m-m-m-m-------|
B|---------------------------------------------------------------------|
G|--9---9---9---9---10-10-10-10--14--14--14--14---12--12--12--12-1212--|
D|----7---7---7---7---8--8--8--8---12--12--12--12---10--10--10---1010--|
A|---------------------------------------------------------------------|
D|---------------------------------------------------------------------|
END-VERSE:
e|-----5-5-----5-5----55--|
B|-----6-6-----6-6----66--|
G|-----6-6-----6-6----66--|
D|-----7-7-----7-7----77--|
A|------------------------|
D|--00------00-----00-----|

PRE-CHORUS: m=palm-muted
e|--mmmmmmmm-----------|
B|---------------------|
G|-----------33335555--|
D|-----------33335555--|
A|--00000000-11113333--|
D|--00000000-----------|
CHORUS:
e|-----------------------------------------------------------------------|
B|-----------------------------------------------------------------------|
G|------------------5555555533333333101010\9/10777777775555555533333333--|
D|--33333333222222225555555533333333101010\9/10777777775555555533333333--|
A|--33333333222222223333333311111111-8-8-8\7/-8555555553333333311111111--|
D|--3333333322222222-----------------------------------------------------|
CHORUS-PART2: X=muted
e|-----------------------------------------------------------------------|
B|-----------------------------------------------------------------------|
G|------------------5555555533333333101010\9/1077777777555555553333------|
D|--33333333222222225555555533333333101010\9/1077777777555555553333XXXX--|
A|--33333333222222223333333311111111-8-8-8\7/-855555555333333331111XXXX--|
D|--3333333322222222-----------------------------------------------XXXX--|

BRIDGE GUITAR1: X=muted
e|-------------------------------------|
B|-------------------------------------|
G|-------------------------------------|
D|--33--1010--88----33--1010--88-XXXX--|
A|--33--1010--88----33--1010--88-XXXX--|
D|--33--1010--88----33--1010--88-XXXX--|
BRIDGE GUITAR2: X=muted
e|-------------------------------------|
B|-------------------------------------|
G|-1010--5-5--33---1010--5-5--33-------|
D|-------------------------------XXXX--|
A|--8-8--3-3--11----8-8--3-3--11-XXXX--|
D|-------------------------------XXXX--|

BRIDGE-PART2: X=muted
e|--------------------------------------------------------------------|
B|--------------------------------------------------------------------|
G|--------------------------------------------------------------------|
D|--0000000000000000222222222222222233333333333333338888888888888XXX--|
A|--0000000000000000222222222222222233333333333333338888888888888XXX--|
D|--0000000000000000222222222222222233333333333333338888888888888XXX--|
BRIDGE-PART3:
e|--------------------------------------------------------------------|
B|--------------------------------------------------------------------|
G|--------------------------------------------------------------------|
D|--0000000000000000222222222222222233333333333333338888888888888888--|
A|--0000000000000000222222222222222233333333333333338888888888888888--|
D|--0000000000000000222222222222222233333333333333338888888888888888--|
END-BRIDGE:
e|-----5-5-----5-5----55--|
B|-----6-6-----6-6----66--|
G|-----6-6-----6-6----66--|
D|-----7-7-----7-7----77--|
A|------------------------|
D|--00------00-----00-----|

INTO-OUTRO: X=muted
e|-----------------|
B|-----------------|
G|-----3335555XXX--|
D|--2223335555XXX--|
A|--0001113333XXX--|
D|-----------------|
OUTRO: 3X
e|-----------------------------------------------------------------------|
B|-----------------------------------------------------------------------|
G|------------------5555555533333333101010\9/10777777775555555533333333--|
D|--33333333222222225555555533333333101010\9/10777777775555555533333333--|
A|--33333333222222223333333311111111-8-8-8\7/-8555555553333333311111111--|
D|--3333333322222222-----------------------------------------------------|
END:
e|-----------------------------------------------------------------------|
B|-----------------------------------------------------------------------|
G|------------------5555555533333333101010\9/107777777755555555----------|
D|--33333333222222225555555533333333101010\9/1077777777555555558888888\\\|
A|--33333333222222223333333311111111-8-8-8\7/-855555555333333338888888\\\|
D|--3333333322222222-------------------------------------------8888888\\\|
Show more