• Song:

    Intervention

  • Artist:

    Arcade Fire

  • Album:

    Morning Becomes Eclecti...

INTERVENTION - Arcade Fire

Tabbed By: Skerlnik
Tuning: EADG

1:36
G|-------|     |-------|
D|-------|     |-------|
A|---33--| 1x  |-3-33--| x7
E|-3-----|     |-------|


1:43 "I can taste the fear..."
G|---------------------------------------------------------|
D|---------------------------------------------------------|
A|-3----------------33---3-33---3----------------33---3-33-|
E|---55---5-1-1---1---------------55---5-1-1---1-----------|

G|---------------------------------------------------------|
D|---------------------------------------------------------|
A|-3------------------------------33---3-33---3-33---3-33--|
E|---55---5-1-1---1-00---0-33---3--------------------------|


2:00 "Who's gonna throw the very first stone..."
G|---------------------------------------------------------|
D|---------------------------------------------------------|
A|-3--------------3333333-333333333---------------33--3-33-|
E|---55--5-1-1--1--------3-----------55--5-1-1--1----------|

G|---------------------------------------------------------|
D|---------------------------------------------------------|
A|-3------------------------------33---3-33---3-33---3-333-|
E|---55---5-1-1---1-00---0-33---3--------------------------|


2:17 "Workin' for the church while my family dies..."
G|--------------------------------------------|
D|-/7777-2222-3333----------------------------|
A|-----------------33---3-33-----33----3-333--|  x2
E|-----------------------------3--------------|

G|-------------------------------------------------------------|
D|-/7777-2222-3333-----------------------55--5-55----55--5-555-|
A|-----------------33---3-33-----33----3-----------5-----------|  x1
E|-----------------------------3-------------------------------|


2:41 “Hear the soldier groan...”
G|------------------------------------------------------------------------|
D|------------------------------------------------------------------------|
A|-3--3---------------33---3-33---3-33---3-33---3-33--3-33---3-33---3320--|
E|-----1--1-0--0-3--3---------------------------------------------------30|


2:53 “I can taste your fear...”
G|----------------------------------------------------------------------------------|
D|----------------------------------------------------------------------------------|
A|-----33-3----------------33-3----------------33-3--22-2--55-5---------------------| x2
E|-00-0----33--3-33--3-00-0----33--3-33--3-00-0----------------33--3-33--3-33--3-33-|


3:24 “Been working for the church...”
G|-----------------------------------------|
D|-----------------------------------------|
A|-/7777-2222-3333-------------------------|  x2
E|-----------------33--3-33--3-33--3-333---|

G|---------------------------------------------------------|
D|---------------------------------------------------------|
A|-/7777-2222-3333------------------55--5-55----55--5-555--|
E|-----------------33--3-33--3-33--3----------5------------|

3:47 “Hear the soldier groan...”
G|-------------------------------------------|
D|-------------------------------------------|
A|----3—-3-2-—2-5--5-------------------------|  x2
E|-3-3--------------33--3-33--3-33--3-33--3--|

4:03
G|--------------------|
D|--------------------|
A|----3—-3-2-—2-5--5--| 
E|-3-3--------------3-|
Show more