• Song:

    Neighborhood 2 Laika

  • Artist:

    Arcade Fire

-------------------------------------------------------------------------------
			     Neighborhood # 2 (Laika) - The Arcade Fire
-------------------------------------------------------------------------------

Tabbed By : rocko872 (José Rodrigo Moreno Elizondo)
e-mail: rocko_872@hotmail.com

Tuning: G D A E

riff 1:
G|----------------------------------------------|
D|----------------------------------------------|
A|-------------7-9-9-9-9------------------------|
E|-0--5-7-7-7-------------0--5-7-7-7--0-2-2-2-2-|

G|--------------------------------------------------|
D|--------------------------------------------------|
A|-------------7-9-9-9-9----------------------------|
E|-0--5-7-7-7-------------0--5-7-7-7--0-2-2-2-2--2-2|

Chorus 1:
G|-----------------------------------------------------------------------|
D|-5-5-5-5--5-5-5--------------------------------------------------------|
A|----------------5----------------0--5-5-5-5--5-5-5---------------------|
E|------------------3-3-3-3--3-3-3-------------------5--7-7-7-7--7-7-7-7-|

G|-----------------------------------------------------------------------|
D|-5-5-5-5--5-5-5--------------------------------------------------------|
A|----------------5----------------0--5-5-5-5--5-5-5---------------------|
E|------------------3-3-3-3--3-3-3-------------------5--7-7-7-7--7-7-7-7-|

Verse 2:
G|----------------------------------------------|
D|----------------------------------------------|
A|-------------7-9-9-9-9------------------------|
E|-0--5-7-7-7-------------0--5-7-7-7--0-2-2-2-2-|

G|--------------------------------------------------|
D|--------------------------------------------------|
A|-------------7-9-9-9-9----------------------------|
E|-0--5-7-7-7-------------0--5-7-7-7--0-2-2-2-2--2-2|

Chorus 2:
G|-----------------------------------------------------------------------|
D|-5-5-5-5--5-5-5--------------------------------------------------------|
A|----------------5----------------0--5-5-5-5--5-5-5---------------------|
E|------------------3-3-3-3--3-3-3-------------------5--7-7-7-7--7-7-7-7-|

G|-----------------------------------------------------------------------|
D|-5-5-5-5--5-5-5--------------------------------------------------------|
A|----------------5----------------0--5-5-5-5--5-5-5---------------------|
E|------------------3-3-3-3--3-3-3-------------------5--7-7-7-7--7-7-7-7-|

G|-----------------------------------------------------------------------|
D|-----------------------------------------------------------------------|
A|-7-7-7-7--7-7-7-7------------------5-5-5-5--4-4-4-4--2-2-2-2--2-2-2-2--|
E|------------------5-5-5-5--5-5-5-5-------------------------------------|

G|-----------------------------------|
D|-----------------------------------|
A|-7-7-7-7--7-7-7-7------------------|
E|------------------5-5-5-5--5-5-5-5-|

Verse 3:
G|----------------------------------------------|
D|----------------------------------------------|
A|-------------7-9-9-9-9------------------------|
E|-0--5-7-7-7-------------0--5-7-7-7--0-2-2-2-2-|

G|--------------------------------------------------|
D|--------------------------------------------------|
A|-------------7-9-9-9-9----------------------------|
E|-0--5-7-7-7-------------0--5-7-7-7--0-2-2-2-2--2-2|

Chorus 3:
G|-----------------------------------------------------------------------|
D|-5-5-5-5--5-5-5--------------------------------------------------------|
A|----------------5----------------0--5-5-5-5--5-5-5---------------------|
E|------------------3-3-3-3--3-3-3-------------------5--7-7-7-7--7-7-7-7-|

G|-----------------------------------------------------------------------|
D|-5-5-5-5--5-5-5--------------------------------------------------------|
A|----------------5----------------0--5-5-5-5--5-5-5---------------------|
E|------------------3-3-3-3--3-3-3-------------------5--7-7-7-7--7-7-7-7-|

G|----------------------------------------------------------------------|
D|----------------------------------------------------------------------|
A|-7-7-7-7--7-7-7-7------------------5-5-5-5--4-4-4-4--2-2-2-2--2-2-2-2-|
E|------------------5-5-5-5--5-5-5-5------------------------------------|

G|----------------------------------------------------|
D|-----------------------------------9-9-9-9--9-9-9-9-|
A|-7-7-7-7--7-7-7-7-----------------------------------|
E|------------------5-5-5-5--5-5-5-5------------------|

Break (when daddy comes home...):
G|------------------------------------------------------------------------|
D|------------------------------------------------------------------------|
A|-5-7-7-7-7--7-7-7-7------------------5-5-5-5--4-4-4-4--2-2-2-2--2-2-2-2-|
E|--------------------5-5-5-5--5-5-5-5------------------------------------|

G|-------------------------------------|
D|-------------------------------------|
A|-5-7-7-7-7--7-7-7-7------------------|
E|--------------------5-5-5-5--5-5-5-5-|

Ending:
G|----------------------------------------------|
D|----------------------------------------------|
A|-------------7-9-9-9-9--------------7-9-9-9-9-|
E|-0--5-7-7-7-------------0--5-7-7-7------------|

G|---------------------------------------------------|
D|---------------------------------------------------|
A|-------------7-9-9-9-9--------------7-9-9-9-9--9---|
E|-0--5-7-7-7-------------0--5-7-7-7---------------7-|



| /  slide up
| \  slide down
| h  hammer-on
| p  pull-off
| ~  vibrato
| +  harmonic
| x  Mute note
===============================================================================
Show more