Sgt. Pepper's Lonely Hearts Club Band Reprise - Bass Tab

Tabbed By: Supremo Gophero
www.maxpages.com/supremogophero

No bass till guitar starts

G|------------------------|
D|------------------------|
A|------------------------| x4
E|---1--1------1--1-------|

G|------------------------|------------------------|-----------------------|
D|------------------------|------------------------|-----------------------|
A|------------------------|---1--1-----------------|---1--1------1--1------|
E|---1--1----4--4---------|---—-------1--1--—------|-----------------------|

G|------------------------|------------------------|-----------------------|
D|------------------------|------------------------|-----------------------|
A|------------------------|------------------------|---1--1----------------|
E|---1--1------1--1-------|---1--1----4--4---------|-----------1--1--------|

G|------------------------|------------------------|
D|------------------------|------------------------|
A|------------------------|-3-----3-----3-----3----|
E|---3--3------3--3-—-----|----3-----3-----3-----3-|

G|------------------------|------------------------|-----------------------|
D|------------------------|------------------------|-----------------------|
A|---1--1------1--1-------|------------------------|-----------------------|
E|------------------------|---1--1----1--1---------|---3--3----3--3--—-----|

G|------------------------|
D|------------------------|
A|-5-----5-----5-----5----|
E|----5-----5-----5—----5-|

G|------------------------|------------------------|-----------------------|
D|------------------------|------------------------|-----------------------|
A|------------------------|---3--3-----------------|---3--3----3--3--------|
E|---3--3------6--6-------|----—------3--3---------|---—-------------—-----|

G|------------------------|------------------------|-----------------------|
D|------------------------|------------------------|-----------------------|
A|------------------------|------------------------|---3--3----------------|
E|---3--3------3--3-------|---3--3----6--6---------|-----------3—-3--------|

G|------------------------|------------------------|
D|------------------------|------------------------|
A|------------------------|-5-----5-----5-----5----|
E|---5--5------5--5-------|----5-----5-----5—----5-|

G|------------------------|------------------------|-----------------------|
D|------------------------|------------------------|-----------------------|
A|---3--3------3--3-------|------------------------|-----------------------|
E|------------------------|---3--3----3--3---------|---5--5----5--5--—-----|

G|------------------------|------------------------|----------------------- 
D|------------------------|------------------------|----------------------- 
A|-3--3--3--3--3--3--3--3-|-3--3--3--3--3--3--3--3-|----------------------
E|--—--—--—---------------|--—--—--—---------------|-3--3--3--3--3--3--3--3|

G|------------------------|------------------------|------------------|    
D|------------------------|------------------------|------------------|    
A|------------------------|-3--3--3--3--3--3--3--3-|------------------|    
E|-6-—6—-6—-6--6--6--6--6-|--—--—--—---------------|-3----------------|
Show more