• Song:

    She Came In Through the Bathroom Window

  • Artist:

    Beatles

  • Album:

    The Alternate Abbey Roa...

SHE CAME IN THROUGH THE BATHROOM WINDOW


Rehearsal from the Anthology III


INTRO

  t=70
G|---------------------------------|-----------------7---------------|
D|-7---------------4---------------|---------------------------------|
A|---------------------------------|-5-------------------------------|
E|---------------------------------|---------------------------------|



VERSE


G|---------------------------------|---------------------------------|
D|-7---------------4---------------|-------------------7-9---9-------|
A|---------------------------------|-5---------------9---------------|
E|---------------------------------|---------------------------------|



G|---------------------------------|-----------------------------7---|
D|-7---------------4---------------|---------------------7-----------|
A|---------------------------------|-5-------------------------------|
E|---------------------------------|---------------------------------|



G|---------------------------------|---------------------------------|
D|-7---------------4---------------|---------------------------------|
A|---------------------------------|-5-----------5-------5-----------|
E|---------------------------------|---------------------------------|



G|---------------------------------|
D|---------------------------------|
A|-5---5-----------5---5---5---5---|
E|---------------------------------|



CHORUS


G|---------------------------------|---------------------------------|
D|-7-------7---7---7---7---7---7---|-------------------------------4-|
A|---------------------------------|-5---5---5---5---5---5---5---5---|
E|---------------------------------|---------------------------------|



G|---------------------------------|---------------------------------|
D|-7---7---7---7---7---7---7---7---|---------------------------------|
A|---------------------------------|-5---5---5---5---5---5---5---5---|
E|---------------------------------|---------------------------------|



G|---------------------------------|---------------------------------|
D|-5---5---5---5---5---5---5---5---|---------------------------------|
A|---------------------------------|-3---3---3---2-------2-----------|
E|---------------------------------|-------------------------5---3---|



G|---------------------------------|-----------------|
D|-5---5---5---5---5---5---5---5---|---------------4-|
A|---------------------------------|-3---2---3---5---|
E|---------------------------------|-----------------|



VERSE


G|---------------------------------|---------------------------------|
D|-7-------------------------------|-------------4-------7---4-------|
A|---------------------------------|-5---------------------------5---|
E|---------------------------------|---------------------------------|



G|---------------------------------|-----------------7-7-7-7-7-\-----|
D|-7---------------4---------------|-------------4-------------------|
A|---------------------------------|-5-------------------------------|
E|---------------------------------|---------------------------------|



G|---------------------------------|---------------------------------|
D|-7---------------4---------------|---------------------------------|
A|---------------------------------|-5----------/4---5---5-----------|
E|---------------------------------|---------------------------------|



G|---------------------------------|
D|---------------------------------|
A|-5---5-----------5---5-------5---|
E|---------------------------------|



CHORUS


G|---------------------------------|---------------------------------|
D|-7---7---7---7---7---7---7---7---|-------------------------------4-|
A|---------------------------------|-5---5---5---5---5---5---5---5---|
E|---------------------------------|---------------------------------|



G|---------------------------------|---------------------------------|
D|-7---7---7---7---7---7---7---7---|---------------------------------|
A|---------------------------------|-5---5---5---5---5---5---5---5---|
E|---------------------------------|---------------------------------|



G|---------------------------------|---------------------------------|
D|-5---5---5---5---5---5---5---5---|-------------2-------3-------4---|
A|-------------------------------5-|-3---3---3-----------------------|
E|---------------------------------|---------------------------------|



G|---------------------------------|-----------------|
D|-5---5---5---5---5---5---5---5---|-----------------|
A|---------------------------------|-3---3---3---5---|
E|---------------------------------|-----------------|



VERSE


G|---------------------------------|---------------------------------|
D|-7-------------------------------|-------------4---4---7---7---4---|
A|---------------------------------|-5-------------------------------|
E|---------------------------------|---------------------------------|



G|---------------------------------|-----------------7-7---7-7-------|
D|-7---------------4---4-----------|-------------4---------------4---|
A|-----------------------------7---|-5-------------------------------|
E|---------------------------------|---------------------------------|



G|---------------------------------|---------------------------------|
D|-7---------------4---4-----------|-------------4---7---7-------4---|
A|-----------------------------7---|-5-------------------------------|
E|---------------------------------|---------------------------------|



G|---------------------------------|
D|---------------------------------|
A|-5---5-------5---5---5---5---5---|
E|---------------------------------|



CHORUS


G|---------------------------------|---------------------------------|
D|-7---7---7---7---7---7---7---7---|---------------------------------|
A|---------------------------------|-5---5---5---5---5---5---5-3-5---|
E|---------------------------------|---------------------------------|



G|---------------------------------|---------------------------------|
D|-7---7---7---7---7---7---7---7---|---------------------------------|
A|---------------------------------|-5---5---5---5---5---5---5-7-5---|
E|---------------------------------|---------------------------------|



G|---------------------------------|---------------------------------|
D|-5---5-------5---5---5-------5---|---------------------------------|
A|-------------------------------5-|-3---3-------2-------------------|
E|---------------------------------|---------------------5-----------|



G|---------------------------------|-----------------|
D|---------------------------------|-----------------|
A|---------------------------------|-3---3---3---5---|
E|-3---3-------3---3-----------3---|-----------------|



OUTRO


G|---------------------------------|---------------------------------|
D|-7-------------------------------|---------------------------------|
A|---------------------------------|-5---5-------5-----------5---5---|
E|---------------------------------|---------------------------------|



G|---------------------------------|---------------------------------|
D|-7-----------7---7-----------7---|-----------------------------7---|
A|---------------------------------|-5---5-------5---5---5-----------|
E|---------------------------------|---------------------------------|



G|---------------------------------|---------------------------------|
D|-5---5-------5---5-----------5---|---------------------------------|
A|---------------------------------|-3-----------2-------------------|
E|---------------------------------|---------------------5-----------|



G|---------------------------------|---------------------------------|
D|-5---5-------5---5-----------5---|---------2---5---7---------------|
A|---------------------------------|-3-------------------------------|
E|---------------------------------|---------------------------------|...
Show more